PrimaNota.ru - самый крупный в мире бесплатный архив песенных текстов, аккордов, табулатур и нот


Misc Computer Games - Chrono Trigger - A Shot Of Crisis - бас-таба, видео

Регистрация Запомнить меня
Войти через:  Facebook Google Twitter Vk Yandex Mail.ru

Misc Computer Games - Chrono Trigger - A Shot Of Crisis - бас-таба, видео

Печатать
Просмотров: 117
Chrono Trigger - A Shot of Crisis

Tabbed by: XxThreeCheersxX
E-mail: burdickash@gmail.com

Tuning: Drop D

Part I
G|----------------------------------------------|
D|----------------------------------------------|
A|-----5---3-0-5--3--5--------5-3----5-0-3-5----| x 8
D|-0-0---5-------------5--0-0-----5----------5--|

Part II x 2
G|------------------------------------3x--3x--3x---------------------------5-----3------------|
D|-------5---3-5----3-----5-----3--5-----------------5-----3--5---3--5--------5------3--5-----|
A|----5----5-----5-----------5--------------------------5-------5-------5------------------5--|
D|-5-------------------5--------------------------5-------------------------------------------|

G|------------------------------------3x--3x--3x---------------------------5-5-5-5-3-3-3--3--|
D|-------5---3-5----3-----5-----3--5-----------------5-----3--5---3--5-----------------------|
A|----5----5-----5-----------5--------------------------5-------5-------5--------------------|
D|-5-------------------5--------------------------5------------------------------------------|

Then repeat as much as you want!  It might take a bit of time for you to be able to play this up to speed.

Happy playing!

| /  slide up
| \  slide down
| h  hammer-on
| p  pull-off
| ~  vibrato
| +  harmonic
| x  Mute note
===============================================================================
Добавлено: 13.04.2015
Другие материалы по этой песне:

Страница создана 01.04.2012
http://primanota.ru/misc-computer-games/chrono-trigger-a-shot-of-crisis-chords.htm
Привет, Гость.
Предлагаем пройти революционный курс по гитаре.
Подарок от PrimaNota.Ru, забирай!