PrimaNota.ru - самый крупный в мире бесплатный архив песенных текстов, аккордов, табулатур и нот


Misc Computer Games - Castlevania 3 - Demon Seed - таба, бас-таба, видео

Регистрация Запомнить меня
Войти через:  Facebook Google Twitter Vk Yandex Mail.ru

Misc Computer Games - Castlevania 3 - Demon Seed - таба, бас-таба, видео

Печатать
Просмотров: 135
Уроки эстрадного вокала в Санкт-Петербурге
Gtr I (E A D G B E) 
Gtr II (E A D G B E) 

  Q=100
 2/4    4/4
  Gtr I
  W      W          W          W
|------|----------|----------|------|
|------|----------|----------|------|
|------|----------|----------|------|
|------|----------|----------|------|
|------|----------|----------|------|
|------|----------|----------|------|


                                   ~~~~~~~~~~~~~~~        ~~~
  S S S S S  S  S  S E +S  S S S S S   +H     +E  E S S S S
|--------------20-23-----------------|----------------------|
|------------------------------------|----------------------|
|-------5-8-20-----------------5---4-|-(4)----(4)-----5---4-|
|--------------------------5---------|--------------5-------|
|-----6--------------6-(6)-----------|------------6---------|
|---3--------------------------------|----------------------|
|
| Gtr II
|                                  ~~~~~~~~~~~~~~~        ~~~
| H                  E +S  S S S S S   +H     +E  E S S S S
|------------------------------------|----------------------|
|------------------------------------|----------------------|
|------------------------------------|----------------------|
|------------------------------2---1-|-(1)----(1)-----2---1-|
|--------------------------2---------|--------------2-------|
|--------------------2-(2)-----------|------------2---------|


 ~~~~~~~~~~~~~~
  +Q   +E  +S  S S S S S S S S S   W
|--------------------------------|------|
|--------------------------------|------|
|-(4)--(4)-(4)---4-4-4-4-4-4-4-4-|------|
|--------------------------------|------|
|--------------------------------|------|
|--------------------------------|------|
|
|~~~~~~~~~~~~~~
| +Q   +E  +S  S S S S S S S S S
|--------------------------------|------|
|--------------------------------|------|
|--------------------------------|------|
|-(1)--(1)-(1)-------------------|------|
|----------------4-4-4-5-5-5-5-5-|------|
|--------------------------------|------|


                     ~~~~~~~~
  H    E +S  S S S S S   +H     +E  E S S S S
|----------------------|----------------------|
|----------------------|----------------------|
|----------------5---4-|-(4)----(4)-----5---4-|
|------------5---------|--------------5-------|
|------6-(6)-----------|------------6---------|
|----------------------|----------------------|
|
|                    ~~~~~~~~~~~~~~~        ~~~
| H    E +S  S S S S S   +H     +E  E S S S S
|----------------------|----------------------|
|----------------------|----------------------|
|----------------------|----------------------|
|----------------2---1-|-(1)----(1)-----2---1-|
|------------2---------|--------------2-------|
|------2-(2)-----------|------------2---------|


   ~~~
  +Q   +E  +S  S S S S S S S S S   S S  S S S S S S S S S S S S S S
|--------------------------------|-----------------------------------|
|--------------------------------|-----------------------------------|
|-(4)--(4)-(4)---7-7-7-7-7-7-5-7-|-7-5--5-5-4-5-5-4-4-4-3-4-4-3-3-3--|
|--------------------------------|-----------------------------------|
|--------------------------------|-----------------------------------|
|--------------------------------|-----------------------------------|
|
|~~~~~
| +Q   +E  +S  S S S S S S S S S   Q    S Q   S   S Q
|--------------------------------|-----------------------------------|
|--------------------------------|-----------------------------------|
|--------------------------------|-----------------------------------|
|-(1)--(1)-(1)---4-4-4-4-4-4-7-4-|-----------------------------------|
|--------------------------------|-----10-----9----------------------|
|--------------------------------|-----------------------------------|


  S S S S S S S S E +S  Q  +S    +W
|------------------------------|------------|
|------------------------------|------------|
|-2-3-3-1-1-0-0-0-1-(1)--------|------------|
|-----------------------1--(1)-|-(1)--------|
|------------------------------|------------|
|------------------------------|------------|
|
| S E S S S E     E +S  Q  +S    +W
|------------------------------|------------|
|------------------------------|------------|
|------------------------------|------------|
|------------------------------|------------|
|-8---8---7-------2-(2)-0--(0)-|-(0)--------|
|------------------------------|------------|


  +S  E E E S E +S  E +S  E   +S  E +S  E E E +S  Q  +S
|---------------------------|----------------------------|
|---------------------------|----------------------------|
|---------------------------|----------------------------|
|-(1)-6-5-4-5-6-(6)-5-(5)-4-|-(4)-3-(3)------------------|
|---------------------------|-----------7-6-6-(6)--------|
|---------------------------|---------------------6--(6)-|
|
| +S  E E E S E +S  E +S  E   +S  E +S  E E E +S  Q  +S
|---------------------------|----------------------------|
|---------------------------|----------------------------|
|---------------------------|----------------------------|
|---------------------------|----------------------------|
|-(0)-----------------------|---------------------5--(5)-|
|-----7-7-6-7-8-(8)-7-(7)-6-|-(6)-5-(5)-3-2-2-(2)--------|


  +W           +Q   +E  X X X X X X X X  S  S S  S  S S  S  S
|------------|------------------------------------------------|
|------------|------------------------------------------------|
|------------|------------------------------------------------|
|------------|------------------------------------------------|
|------------|------------------4-5-7-8-10-10---10-10---10-10-|
|-(6)--------|-(6)--(6)-4-5-6-7-------------------------------|
|
| +W           +Q   +E  X X X X X X X X  S  S S  S  S S  S  S
|------------|------------------------------------------------|
|------------|------------------------------------------------|
|------------|---------------------------4--4------------4--4-|
|------------|------------------------------------------------|
|-(5)--------|-(5)--(5)-----------0-2-3----------2--2---------|
|------------|----------0-1-2-3-4-----------------------------|


  S  S  S S  S  S E  S  S S  S  S S  S  S
|-----------------------------------------|
|-----------------------------------------|
|-----------------------------------------|
|-----------------------------------------|
|---10-10---10-10---10-10---10-10---10-10-|
|-----------------------------------------|
|
| S  S  S S  S  S E  S  S S  S  S S  S  S
|-----------------------------------------|
|-----------------------------------------|
|------------4--4----4--4------------4--4-|
|-----------------------------------------|
|----2--2--------------------2--2---------|
|-----------------------------------------|


  |------3-------|
  E  E  E  E  E  E
|---------------------|
|---------------------|
|---------------------|
|---------------------|
|---10-11-12-13-14----|
|---------------------|
|
| |------3-------|
| E  E  E  E  E  E
|---------------------|
|---------------------|
|---------------------|
|---------------------|
|----2--3--5--5--7----|
|---------------------|


Добавлено: 28.06.2015
Другие материалы по этой песне:

Страница создана 27.06.2015
http://primanota.ru/misc-computer-games/castlevania-3-demon-seed-chords.htm
Привет, Гость.
Предлагаем пройти революционный курс по гитаре.
Подарок от PrimaNota.Ru, забирай!