PrimaNota.ru - самый крупный в мире бесплатный архив песенных текстов, аккордов, табулатур и нот


Misc Computer Games - Banjo Tooie - Clankers Cavern - бас-таба, видео

Регистрация Запомнить меня
Войти через:  Facebook Google Twitter Vk Yandex Mail.ru

Misc Computer Games - Banjo Tooie - Clankers Cavern - бас-таба, видео

Печатать
Просмотров: 74
Новый альбом группы 'Черный Кузнец' по культовому сериалу 'Сверхъестественное'!
Banjo Tooie - Clanker's Cavern (Composed by Grant Kirkhope)

Tabbed by: Ash (XxThreeCheersxX)
E-mail: burdickash@gmail.com

Tuning: Standard

Note: this is the bassline and rhythm, not the melody.  And wow this is a great bassline.

Main Riff x 4
G|----------------|
D|----------------|
A|-3--1-------0-2-|
E|-------4--3-----|

G|----------------------------------------------------------------------------------|
D|----------------------------------------------------------------------------------|
A|-3--3--1--1--------4----0-2-3--1-------0-2-3--1--------3--3--3--3--4-----3----0-2-|
E|-------------4--3-----3-----------4--3-----------4--4-----------------3-----3-----|

G|-------------------------------------------------|
D|-------------------------3--3--1--1--------------|
A|-------3--3--------3--3--------------4--4--------|
E|-2--2--------4--4--------------------------3--3--|

G|-------------------------------------------------------------------|
D|-------------------------------------------------------------------|
A|-1-------0-2-3--1--------3--3--3--3--4-----3----0-2-3--1-------0-2-|
E|----4--3-----------4--4-----------------3-----3-----------4--3-----|

Main Riff x Key Change
G|----------------|
D|----------------|
A|-4--2--0----1-3-| x 3
E|----------4-----|

G|-----------------------------------------------------------------------------------|
D|-----------------------------------------------------------------------------------|
A|-4--4--2--2--------5----1-3--4--2--0----1-3-4--2--0--0--4--4--4--4--5-----4----1-3-|
E|-------------5--4-----4---------------4--------------------------------4-----4-----|

G|--------------------------------------------------------|
D|--------------------------------------------------------|
A|-5----5-5----5-5--3--5----5-5----5-5----5---------------|
E|------------------------------------------4----4-4----4-|

G|-----------------------------------------------------|
D|-----------------------------------------------------|
A|-5----5-5----5-5--3--5----5-5----5-5----5-6-----5----|
E|---------------------------------------------5-------|

G|-------------------------------------------------|
D|-------------------------3--3--1--1--------------|
A|-------3--3--------3--3--------------4--4--------|
E|-2--2--------4--4--------------------------3--3--|

Repeat back to the beginning.

Happy playing!

| /  slide up
| \  slide down
| h  hammer-on
| p  pull-off
| ~  vibrato
| +  harmonic
| x  Mute note
===============================================================================
Добавлено: 17.12.2017
Другие материалы по этой песне:
  • Аккорды и текст

Страница создана 17.12.2017
http://primanota.ru/misc-computer-games/banjo-tooie-clankers-cavern-chords.htm
Привет, Гость.
Предлагаем пройти революционный курс по гитаре.
Подарок от PrimaNota.Ru, забирай!