PrimaNota.ru - самый крупный в мире бесплатный архив песенных текстов, аккордов, табулатур и нот


Misc Computer Games - Banjo Kazooie - Gruntys Lair - таба, видео

Регистрация Запомнить меня
Войти через:  Facebook Google Twitter Vk Yandex Mail.ru

Misc Computer Games - Banjo Kazooie - Gruntys Lair - таба, видео

Печатать
Просмотров: 85
I appologize for not putting in the keyboard beginning.....I really didn't feel like
it out :P
And.......some parts might be wrong? I don't know. Feel free to email me with
on changes, Fklzm@aim.com
one more tid-bit....
Don't complain about the fact that I didn't put in all the octave parts, please :[ a
only has so much limitations...and in the actual theme the music goes way too low and way
high for a guitar, so I just found a nice middle area to make a tab for.



                           ~{Grunty's Lair}~

e|-------------------------------------------------------------------------|
B|-------------------------------------------------------------------------|
G|-------------------------------------------------------------------------|
D|----------------2-3-2------------------------------------------5-7-5-----|
A|-0---3-2-3-2-0-----------0---3-2-3-2-0----------3---7-5-7-5-3------------|
E|----------------------------------------3~-------------------------------|

e|-------------------------------------------------------------------------|
B|-------------------------------------------------------------------------|
G|-----------------------------------2-3--5-3--2-0-------------------------|
D|--------------------0---3-2-3-2-0-----------------3-2--3-5--7------------|
A|--3---7-5-7-5-3----------------------------------------------------------|
E|-------------------------------------------------------------------------|
                            {*******Palm Mute*******}
e|-------------------------------------------------------------------------|
B|---------------------------------------0---0-3-1-------------------------|
G|-------------------2-------------1---1---1-------4-----------------------|
D|-3--5-7-5-3-0--2-3---------2---2---2-------------------------------------|
A|-----------------------------2-------------------------------------------|
E|-------------------------------------------------------------------------|

e|-------------------------------------------------------------------------|
B|-------------------------------------------------------------------------|
G|-----------2------------------------2--------------------2---------------|
D|--3-3-3-3----1--0-1-0------3-3-3-3----1---1/5----3-3-3-3---1--0-1-0------|
A|-----------------------3---------------------------------------------3---|
E|-------------------------------------------------------------------------|

e|-------------------------------------------------------------------------|
B|-------------------------------------------------------------------------|
G|---------------------------------------2------------------------2--------|
D|------------------------------3-3-3-3----1--0-1-0------3-3-3-3-----1--1/5|
A|-1---3-4-3-1---3-3-3-4--3--------------------------3---------------------|
E|-------------------------------------------------------------------------|

e|-------------------------------------------------------------------------|
B|-------------------------------------------------------------------------|
G|-----------2-------------------------------------------------------------|
D|--3-3-3-3-----1--0-1-0---------------------------------------------------|
A|------------------------3---3h4p3-1--------------------------------------|
E|-------------------------------------3-1---------------------------------|


| /  slide up
| \  slide down
| h  hammer-on
| p  pull-off
| ~  vibrato
| +  harmonic
| x  Mute note

Brought to you by a loner named Alex :]
Добавлено: 14.05.2012
Другие материалы по этой песне:
  • Аккорды и текст

Страница создана 14.05.2012
http://primanota.ru/misc-computer-games/banjo-kazooie-gruntys-lair-chords.htm
Привет, Гость.
Предлагаем пройти революционный курс по гитаре.
Подарок от PrimaNota.Ru, забирай!