PrimaNota.ru - самый крупный в мире бесплатный архив песенных текстов, аккордов, табулатур и нот


Misc Computer Games - Baldurs Gate - Candlekeep - таба, видео

Регистрация Запомнить меня
Войти через:  Facebook Google Twitter Vk Yandex Mail.ru

Misc Computer Games - Baldurs Gate - Candlekeep - таба, видео

Печатать
Просмотров: 179
Baldurs Gate - Candlekeep
Tuning - Standard E A D G B E
Tabbed by drawnacrol

Listen to the music for the rhythm of the notes:
http://www.youtube.com/watch?v=77sCLEDROVA

You can contact me at:
ttp://www.youtube.com/drawnacrol


|------------------------------------------------------------------------|
|----------------------------------------------6-----5-------------------|
|--7--5--7---------7--5--7--------7--5--7------------------7-------------|
|------------------------------------------------------------------------|
|------------------------------------------------------------------------|
|------------------------------------------------------------------------|

|------------------------------------------------------------------------|
|----------------------------------------------6-----5-------------------|
|--7--5--7---------7--5--7--------7--5--7------------------7-------------|
|------------------------------------------------------------------------|
|------------------------------------------------------------------------|
|------------------------------------------------------------------------|

|------------------------------------------------------------------------|
|------------------------------------------------------------------------|
|------------------------------------------------------------------------|
|--9--7--9--------9--7--9--------8-------7-------------------------------|
|------------------------------------------------------------------------|
|------------------------------------------------------------------------|

|------------------------------------------------------------------------|
|--------------------------------------------------------12--13----------|
|-------------------------------------10----9-----7----------------------|
|--9--5--9------7-----9----6----5----------------------------------------|
|------------------------------------------------------------------------|
|------------------------------------------------------------------------|

|------------------------------------------------------------------------|
|------------------------------------------------------------------------|
|------------------------------------------------------------------------|
|--9---7---9----8-----7--------9----6----5-------------------------------|
|--------------------------------------------8------7---5----------------|
|------------------------------------------------------------------------|

|------------------------------------------------------------------------|
|------------------------------------------------------------------------|
|------------------------------------------------------------------------|
|---9----10--------------------------------------------------------------|
|------------------------------------------------------------------------|
|------------------------------------------------------------------------|
Добавлено: 28.03.2012
Другие материалы по этой песне:
  • Аккорды и текст

Страница создана 28.03.2012
http://primanota.ru/misc-computer-games/baldurs-gate-candlekeep-chords.htm
Привет, Гость.
Предлагаем пройти революционный курс по гитаре.
Подарок от PrimaNota.Ru, забирай!