PrimaNota.ru - самый крупный в мире бесплатный архив песенных текстов, аккордов, табулатур и нот


Misc Computer Games - Angry Birds - таба, видео

Регистрация Запомнить меня
Войти через:  Facebook Google Twitter Vk Yandex Mail.ru

Misc Computer Games - Angry Birds - таба, видео

Печатать
Просмотров: 174
ANGRY BIRDS


           Em         Em         B7     Em
e|-----------------------------------------|-------------------|
B|---------0----------0--0-1-0-------------|-------------------|
G|-----0---0------0---0--------2-0--0------|-----0----0-2-4----|
D|-2-4---2-2--2-4---2-2---------------4-2--|-2-4---2--------2--|
A|-----------------------------------------|-------------------|
E|-----------------------------------------|-------------------|


       G               Em                             G               Em
e|---------------0------------|---------------------------------0------------|
B|-0-2-3-2-3-2-3---3-1-0------|-------------------0-2-3-2-3-2-3---3-1-0------|
G|-----------------------3-4--|-----0----0-2-4-------------------------------|
D|----------------------------|-2-4---2--------2------------------------2-2--|
A|----------------------------|----------------------------------------------|
E|----------------------------|----------------------------------------------|


       G                    F#dim  Em         G                      F#dim Em
e|--------------0-----------------------|--------------0------------------------|
B|-0-2-3-3-3-3-3-3-2-3--3-3-3-3-1-0-----|-0-2-3-3-3-3-3-3-2-3-3-2-3-3-1-0--0----|
G|--------------------------------------|--------------------------------2------|
D|----------------------------------2-2-|-----------------------------------2-2-|
A|--------------------------------------|---------------------------------------|
E|--------------------------------------|---------------------------------------|


   Em                     N.C.    Em                            N.C.
e|------------------------6-6-6-|-------------------------------9-9-9--|
B|-----------------0-0-0--0-0-0-|-----------------3-3-3--2-2-2---------|
G|---------0---0-2-3-3-3--------|---------0---0-2---------------7-7-7--|
D|-2-1-2-4---4------------------|-2-1-2-4---4--------------------------|
A|------------------------------|--------------------------------------|
E|------------------------------|--------------------------------------|


   Em  B7  Em           B7  Em           Em         Em         B7     Em
e|-----------------------------|-----------------------------------------0--|
B|-----------0-1-0-------------|---------0----------0--0-1-0-------------0--|
G|-0----------------0----------|-----0---0------0---0--------2-0--0------0--|
D|---2-4-1-2----------2-4-1-2--|-2-4---2-2--2-4---2-2---------------4-2--2--|
A|-----------------------------|-----------------------------------------2--|
E|-----------------------------------------------------------------------0--|


Another iconoclastic time-waster from MrH., the guitarists pal.
Добавлено: 21.07.2013
Другие материалы по этой песне:
  • Аккорды и текст

Страница создана 21.07.2013
http://primanota.ru/misc-computer-games/angry-birds-chords.htm
Привет, Гость.
Предлагаем пройти революционный курс по гитаре.
Подарок от PrimaNota.Ru, забирай!