PrimaNota.ru - самый крупный в мире бесплатный архив песенных текстов, аккордов, табулатур и нот


Misc Christmas - When Christmas Comes To Town Polar Express - таба, видео

Регистрация Запомнить меня
Войти через:  Facebook Google Twitter Vk Yandex Mail.ru

Misc Christmas - When Christmas Comes To Town Polar Express - таба, видео

Печатать
Просмотров: 53
-------------------------------------------------------------------------------
                             When Christmas Comes To Town - Polar Express
-------------------------------------------------------------------------------
Based off Youtube Song : When Christmas Comes To Town ~ The Polar Express [Lyrics]
https://www.youtube.com/watch?v=dtszN3TkQsI
Channel: https://www.youtube.com/user/ThePapazeke
BUT IN WRITING!!!

MAKE SURE TO RATE THE TAB AND FOLLOW THE YOUTUBER CHANNEL IF YOU FIND IT HELPFUL!! ENJOY IT <3

Tuning:Standard Tuning 
NO CAPO NEEDED!!

e|------------------|------------------|------------------|------------------|
B|----------------0-|------------------|----------------0-|------------------|
G|----0-----2-------|----0-------------|----0-----2-------|----0-------------|
D|-0-----0-----0----|-0-----0-----0----|-0-----0-----0----|-0-----0-----0----|
A|------------------|----------3-----2-|------------------|----------3-----2-|
E|------------------|------------------|------------------|------------------|
I'm wishing on a star| And trying to believe| That even though it's far| He'll find me Christmas Eve

e|---------------------|---------------------|------------------------------|
B|-0--1--1--1--0--0----|-------0-----0--3----|-0--1--0--------1--0----------|
G|-------------------2-|-0--2-----2--------0-|----------0-----------2--0--0-|
D|---------------------|---------------------|-------------0----------------|
A|---------------------|---------------------|------------------------------|
E|---------------------|---------------------|------------------------------|
I guess that Santa's busy| 'Cuz he never comes around| I think of him when Christmas comes to town

e|------------------|------------------|------------------|------------------|
B|----------------0-|------------------|-------------3--0-|------------------|
G|----0-----2-------|----0-------------|----0-----2-------|----0-------------|
D|-0-----0-----0----|-0-----0-----0----|-0-----0----------|-0-----0-----0----|
A|------------------|----------3-----2-|------------------|----------3-----2-|
E|------------------|------------------|------------------|------------------|
The best time of the year| When everyone comes home| With all this Christmas cheer| It's hard to be alone

e|---------------------|---------------------|------------------------------|
B|-1--1--1--0--0-------|-------0-----0--3----|-0--1--0--------1--0----------|
G|----------------2--2-|-0--2-----2--------0-|----------0-----------2--0--0-|
D|---------------------|---------------------|-------------0----------------|
A|---------------------|---------------------|------------------------------|
E|---------------------|---------------------|------------------------------|
Putting up the Christmas tree| With friends who come around| It's so much fun when Christmas comes to town

e|------------------------|---------------|------------------------|---------------|
B|------------------------|---------------|------------------------|---------------|
G|-0--0--0--3--2--0-------|----------2--0-|-0--0--0--3--2--0-------|----------2--3-|
D|-------------------3--0-|-3--0--3-------|-------------------3--0-|-3--0--3-------|
A|------------------------|---------------|------------------------|---------------|
E|------------------------|---------------|------------------------|---------------|
Presents for the children| Wrapped in red and green| All the things I heard about| But never really seen

e|------------------|---------------------|---------------------|
B|------------------|---------------------|----1--2--2--2--2--3-|
G|-0--0--0--0--2--2-|-0--2--3--2--0--2--3-|-3-------------------|
D|------------------|---------------------|---------------------|
A|------------------|---------------------|---------------------|
E|------------------|---------------------|---------------------|
No one will be sleeping| On the night of Christmas Eve| Hoping Santa's on his way...

INSTRUMENTAL (SINGING IS OPTIONAL)

e|------------------|------------------|------------------|------------------|
B|----------------0-|------------------|-------------3--0-|------------------|
G|----0-----2-------|----0-------------|----0-----2-------|----0-------------|
D|-0-----0-----0----|-0-----0-----0----|-0-----0----------|-0-----0-----0----|
A|------------------|----------3-----2-|------------------|----------3-----2-|
E|------------------|------------------|------------------|------------------|
The best time of the year| When everyone comes home| With all this Christmas cheer| It's hard to be alone 

e|---------------------|---------------------|------------------------------|
B|-1--1--1--0--0-------|-------0-----0--3----|-0--1--0--------1--0----------|
G|----------------2--2-|-0--2-----2--------0-|----------0-----------2--0--0-|
D|---------------------|---------------------|-------------0----------------|
A|---------------------|---------------------|------------------------------|
E|---------------------|---------------------|------------------------------|
Putting up the Christmas tree| With friends who come around| It's so much fun when Christmas comes to town

SINGING IS BACK!!!

e|------------------------|---------------|------------------------|---------------|
B|------------------------|---------------|------------------------|---------------|
G|-0--0--0--3--2--0-------|----------2--0-|-0--0--0--3--2--0-------|----------2--3-|
D|-------------------3--0-|-3--0--3-------|-------------------3--0-|-3--0--3-------|
A|------------------------|---------------|------------------------|---------------|
E|------------------------|---------------|------------------------|---------------|
Presents for the children| Wrapped in red and green| All the things I heard about| But never really seen

e|------------------|---------------------|---------------------|
B|------------------|---------------------|----1--2--2--2--2--3-|
G|-0--0--0--0--2--2-|-0--2--3--2--0--2--3-|-3-------------------|
D|------------------|---------------------|---------------------|
A|------------------|---------------------|---------------------|
E|------------------|---------------------|---------------------|
No one will be sleeping| On the night of Christmas Eve| Hoping Santa's on his way...

e|------------------|------------------|------------------|------------------|
B|----------------0-|------------------|-------------3--0-|------------------|
G|----0-----2-------|----0-------------|----0-----2-------|----0-------------|
D|-0-----0-----0----|-0-----0-----0----|-0-----0----------|-0-----0-----0----|
A|------------------|----------3-----2-|------------------|----------3-----2-|
E|------------------|------------------|------------------|------------------|
When Santa's sleigh bells ring| I listen all around| The herald angel sings| I never hear a sound

e|---------------------|---------------------|------------------------------|
B|-1--1--1--0--0-------|-------0-----0--3----|-0--1--0--------1--0----------|
G|----------------2--2-|-0--2-----2--------0-|----------0-----------2--0--0-|
D|---------------------|---------------------|-------------0----------------|
A|---------------------|---------------------|------------------------------|
E|---------------------|---------------------|------------------------------|
And all the dreams of children| Once lost will now be found| That's all I want when Christmas comes to town



************************************

| /   slide up
| \   slide down
| h   hammer-on
| p   pull-off
| ~   vibrato
| +   harmonic
| x   Mute note
| b   Bend
| pb  Pre-bend
| br  Bend release
| pbr Pre-bend release
| brb Bend release bend

************************************
Добавлено: 20.03.2016
Другие материалы по этой песне:
  • Аккорды и текст

Страница создана 20.03.2016
http://primanota.ru/misc-christmas/when-christmas-comes-to-town-polar-express-chords.htm
Привет, Гость.
Предлагаем пройти революционный курс по гитаре.
Подарок от PrimaNota.Ru, забирай!