PrimaNota.ru - самый крупный в мире бесплатный архив песенных текстов, аккордов, табулатур и нот


Misc Christmas - Heat Miser Snow Miser - таба, видео

Регистрация Запомнить меня
Войти через:  Facebook Google Twitter Vk Yandex Mail.ru

Misc Christmas - Heat Miser Snow Miser - таба, видео

Печатать
Просмотров: 110
Уроки эстрадного вокала в Санкт-Петербурге
-------------------------------------------------------------------------------
                             Heat Miser - Unknown
-------------------------------------------------------------------------------
Tabbed by:J. Sapp
E-mail:---

Tuning: Standard

e|---------------------------------------------------------------------------|
B|-5--3--1--6--3--1--5--3--1-----5--3--1--6--3--1--3--3--1--0----------------|
G|----------------------------2--------------------------------2--0----------|
A|---------------------------------------------------------------------------|
E|---------------------------------------------------------------------------|

e|---------------------------------------------------------------------------|
B|-5--5--3--1-----1--5--5--1--3--1--333--1-----1-----------------------------|
G|-------------2----------------------------2--------------------------------|
D|---------------------------------------------------------------------------|
A|---------------------------------------------------------------------------|
E|---------------------------------------------------------------------------|

e|---------------------------------------------------------------------------|
B|---------------------------------------------------------------------------|
G|-0--4--5-----5p0--4--5--2/s5----------x2-----------------------------------|
D|---------------------------------------------------------------------------|
A|---------------------------------------------------------------------------|
E|---------------------------------------------------------------------------|




************************************

| /   slide up
| \   slide down
| h   hammer-on
| p   pull-off
| ~   vibrato
| +   harmonic
| x   Mute note
| b   Bend
| pb  Pre-bend
| br  Bend release
| pbr Pre-bend release
| brb Bend release bend

************************************
Добавлено: 20.06.2015
Другие материалы по этой песне:
  • Аккорды и текст

Страница создана 20.06.2015
http://primanota.ru/misc-christmas/heat-miser-snow-miser-chords.htm
Привет, Гость.
Предлагаем пройти революционный курс по гитаре.
Подарок от PrimaNota.Ru, забирай!