PrimaNota.ru - самый крупный в мире бесплатный архив песенных текстов, аккордов, табулатур и нот


Misc Christmas - El Nio Del Tambor - таба, видео

Регистрация Запомнить меня
Войти через:  Facebook Google Twitter Vk Yandex Mail.ru

Misc Christmas - El Nio Del Tambor - таба, видео

Печатать
Просмотров: 147
Уроки эстрадного вокала в Санкт-Петербурге
Merry christmas!!

            El camino que lleva a Belén.........
e |------------------------------------------------|
B |-------------------12-12-—12-13-12-13-12--------|
G |---------12---14--------------------------------|
D |------------------------------------------------|
A |------------------------------------------------|
E |------------------------------------------------|

e |-----------------------------------------------------|
B |------------------------12-12-—12-13-12-13-12--------|
G |---------12-12---14----------------------------------|
D |-----------------------------------------------------|
A |-----------------------------------------------------|
E |-----------------------------------------------------|

e |------------------10-10-12-10-------------------------|
B |--------10-12-13------------------13-12-10------------|
G |------------------------------------------------------|
D |------------------------------------------------------|
A |------------------------------------------------------|
E |------------------------------------------------------|

e |-----------10-10-12----13-12-10-8----12-10-8------10-8-------|
B |-10-12-13-----------------------------------12---------12-10-|
G |-------------------------------------------------------------|
D |-------------------------------------------------------------|
A |-------------------------------------------------------------|
E |-------------------------------------------------------------|

El camino que lleva a Belén.......
 and again you start from the begining
Добавлено: 27.02.2012
Другие материалы по этой песне:
  • Аккорды и текст

Страница создана 27.02.2012
http://primanota.ru/misc-christmas/el-nio-del-tambor-chords.htm
Привет, Гость.
Предлагаем пройти революционный курс по гитаре.
Подарок от PrimaNota.Ru, забирай!