PrimaNota.ru - самый крупный в мире бесплатный архив песенных текстов, аккордов, табулатур и нот


Misc Christmas - Amazing Grace - бас-таба, видео

Регистрация Запомнить меня
Войти через:  Facebook Google Twitter Vk Yandex Mail.ru

Misc Christmas - Amazing Grace - бас-таба, видео

Печатать
Просмотров: 25
-------------------------------------------------------------------------------
                             Amazing Grace
-------------------------------------------------------------------------------
Tabbed by: Slingly

This is an easy one for beginners to learn. Just keep along with the lyrics and it fits up perfectly.
Mess around with the bass to make it fit different versions of the song!
I enjoy repeating the second note in each line (eg. Double '00' on the first G note in "amazing")

   A-ma-zing grace! How sweet the sound
G|---0----4-0-4------2----0--------------|
D|-0---------------------------2----0----|
A|---------------------------------------|
E|---------------------------------------|

   That saved a wretch like me!
G|-------0----4-0-4----2---7-------|
D|--0------------------------------|
A|---------------------------------|
E|---------------------------------|

   I once was lost, but now I'm found.
G|-4--7----4-0-4-----2---0-----------|
D|---------------------------2----0--|
A|-----------------------------------|
E|-----------------------------------|

  Was blind, but now I see.
G|------0-----4-0-4--2--0------|
D|-0---------------------------|
A|-----------------------------|
E|-----------------------------|



This was my first tab I made, so I hope it's works out well for people!
I was in a very Christmas-y mood today and felt like making this tab!
Добавлено: 10.02.2016
Другие материалы по этой песне:
  • Аккорды и текст

Страница создана 10.02.2016
http://primanota.ru/misc-christmas/amazing-grace-chords.htm
Привет, Гость.
Предлагаем пройти революционный курс по гитаре.
Подарок от PrimaNota.Ru, забирай!