PrimaNota.ru - самый крупный в мире бесплатный архив песенных текстов, аккордов, табулатур и нот


Misc Children - Merirosvolaulu - таба

Регистрация Запомнить меня
Войти через:  Facebook Google Twitter Vk Yandex Mail.ru

Misc Children - Merirosvolaulu - таба

Печатать
Просмотров: 103
Tabbed by: SebuPeba

email: severi377@gmail.com

e-------------------------------------|
B-------------------------------------|
G-------------------------------------|
D-------------------------------------|
A---0--0--0--0--2--3--2--3--0---------|
E-0---------------------------3--0--3-|

e-------------------------------------|
B-------------------------------------|
G-------------------------------------|
D--------------------------0--2---2---|
A---0--0--0--0--2--3--2--3------3-----|
E-0-----------------------------------|

e-------------------------------------|
B-------------------------------------|
G-------------------------------------|
D---2--2--2--2---0--0--0--0-----------|
A-3------------3----------------------|
E-------------------------------------|

e-------------------------------------|
B-------------------------------------|
G-------------------------------------|
D-------------------------------------|
A-2--3--3--3--0--2--2--2--2-----------|
E-------------------------------------|

e-------------------------------------|
B-------------------------------------|
G-------------------------------------|
D---0--2--0---------------------------|
A-3---------3--2---0--0--0---0--------|
E----------------0---------3----------|
Добавлено: 14.07.2015
Другие материалы по этой песне:
  • Аккорды и текст

Страница создана 14.07.2015
http://primanota.ru/misc-children/merirosvolaulu-chords.htm
Привет, Гость.
Предлагаем пройти революционный курс по гитаре.
Подарок от PrimaNota.Ru, забирай!