PrimaNota.ru - самый крупный в мире бесплатный архив песенных текстов, аккордов, табулатур и нот


Misc Children - Frere Jacques - таба, бас-таба, видео

Регистрация Запомнить меня
Войти через:  Facebook Google Twitter Vk Yandex Mail.ru

Misc Children - Frere Jacques - таба, бас-таба, видео

Печатать
Просмотров: 154
This is my first tab so expect mistakes. I did it cause its simple and I like the song 
4 years in French class. Please comment good or bad just wanna know how I did.

Are you sleeping?X2                   Brother JohnX2
E[----------------------------------][-------------------------]
A[----------------------------------][-------------------------]
D[----------------------------------][-------------------------]
G[----------------------------------][-------------------------]
B[--12--14--16--12----12--14--16--12][-15--16--18----15--16--18]
E[----------------------------------][-------------------------]


  Morning bells are ringing!X2
E[-------------------------------------------]
A[-------------------------------------------]
D[-------------------------------------------]
G[-------------------0----------------------0]
B[-17-----17--15--0-------17-----17--15--0---]
E[-----0----------------------0--------------]

  bro-ther JohnX2
E[----------------------------------------]
A[----------------------------------------]
D[----------------16--------------------16]
G[-------16-17-15-------------16-17-15----]
B[-17-15----------------17-15-------------]
E[----------------------------------------]
Добавлено: 18.04.2012
Другие материалы по этой песне:
  • Аккорды и текст

Страница создана 18.04.2012
http://primanota.ru/misc-children/frere-jacques-chords.htm
Привет, Гость.
Предлагаем пройти революционный курс по гитаре.
Подарок от PrimaNota.Ru, забирай!