PrimaNota.ru - самый крупный в мире бесплатный архив песенных текстов, аккордов, табулатур и нот


Misc Cartoons - Wolf Hurricane Theme - таба, видео

Регистрация Запомнить меня
Войти через:  Facebook Google Twitter Vk Yandex Mail.ru

Misc Cartoons - Wolf Hurricane Theme - таба, видео

Печатать
Просмотров: 144
Уроки эстрадного вокала в Санкт-Петербурге
Wolf Hurricane (Yamcha's theme) from Dragon Ball OST
tabbed by ibbod0

just the intro for now :)

164BPM
     E.   S  Q     Q.      S   S     E   E   H         S  S   S  S   
E||------------------------------|--------------------10------------|
B||------13b-L-----L------13p-10-|--13--13b~-L-----------13p-10-----|
G||------------------------------|------------------------------12b-|
D||------------------------------|----------------------------------|
A||------------------------------|----------------------------------|
E||------------------------------|----------------------------------|


  Q     S   S  S   S  S   S  E   E   E       Q     S   S  E   H         
-----------------------------------------|-----------------------------|
-------13p-10----------------------------|-----------------------------|
--L-----------12p-10--------12b-----10~--|---L-------------------------|
---------------------12p-10--------------|--------12p-10-12~--L--------|
-----------------------------------------|-----------------------------|
-----------------------------------------|-----------------------------|


  E  Q    Q      E   E   E      Q.      Q.       Q        
----------------------------|--12------12b-------Lpbr----|
--------------------13------|----------------------------|
--5--5----5----/12------12--|---L------------------------|
--5--5----5-----------------|----------------------------|
--3--3----3-----------------|----------------------------|
----------------------------|----------------------------|


   H         E    E   E   E      E   H.            E     
---------------------17------|--17--17~------------L\--||
--14~--------L--/14------14--|-------------------------||
-----------------------------|-------------------------||
-----------------------------|-------------------------||
-----------------------------|-------------------------||
-----------------------------|-------------------------||




Duration Legend
---------------
W - whole
H - half
Q - quarter
E - 8th
S - 16th
T - 32nd
X - 64th
. - note dotted
|-n-|  - n-tuplets


Tablature Legend
----------------
L - tied note
x - dead note
g - grace note
(n) - ghost note
> - accentuded note
NH - natural harmonic
AH - artificial harmonic
TH - tapped harmonic
SH - semi harmonic
PH - pitch harmonic
h - hammer on
p - pull off
b - bend
br - bendRelease
pb - preBend
pbr - preBendRelease
brb - bendReleaseBend
\n/ - tremolo bar dip
\n - tremolo bar dive
-/n - tremolo bar Release up
/n\ - tremolo bar inverted dip
/n - tremolo bar return
-\n - tremolo bar Release down
S - shift slide
s - legato slide
/ -  slide into from below or out of upwards
\ -  slide into from above or out of downwards
~ - vibrato
W - wide vibrato
tr - trill
TP - tremolo picking
T - tapping
S - slap
P - pop
< - fade in
^ - brush up
v - brush down
Добавлено: 08.08.2013
Другие материалы по этой песне:
  • Аккорды и текст

Страница создана 08.08.2013
http://primanota.ru/misc-cartoons/wolf-hurricane-theme-chords.htm
Привет, Гость.
Предлагаем пройти революционный курс по гитаре.
Подарок от PrimaNota.Ru, забирай!