PrimaNota.ru - самый крупный в мире бесплатный архив песенных текстов, аккордов, табулатур и нот


Misc Cartoons - Wishguu - El Sol Se Recuesta - таба, видео

Регистрация Запомнить меня
Войти через:  Facebook Google Twitter Vk Yandex Mail.ru

Misc Cartoons - Wishguu - El Sol Se Recuesta - таба, видео

Печатать
Просмотров: 190
Gm                       Dm
e|--------------------------------------------------|
B|-----3---3-------3---3-------------3--------------|
G|---3---3---3---3---3-----------2-----2-----2---2--|
d|-5-----------5-------------0h3---3-----0h3---3---3|
A|--------------------------------------------------|
D|--------------------------------------------------|
   A                        D   
e|----------------------------------------------(2)-|
B|--------------------(5)---------(3)--------3------|
G|-----6---6-------3---3-------2---2-------2---2----|
d|---7---7---7---5---5---5---3---3---3---4-------4--|
A|-0------------------------------------------------|
D|-------------5-----------3-----------0------------|

  Gm                     Dm
e|--------------------------------------------------|
B|-----3---3-------3---3---------------------------3|
G|---3---3---3---3---3---3-------2---2-------2---2--|
d|-5-----------5-------------0h3---3---3-0h3---3----|
A|--------------------------------------------------|
D|--------------------------------------------------|
   A                       Dm       A7      Dm
e|----------------------------------------0---------|
B|-----------------------5--------3-----2----3------|
G|-----2---2-------6---6--------2------0-----2------|
d|---2---2---2---7---7------0-3-------2------3------|
A|-0-----------0---------------------0------(0)-----|
D|-------------------------------------------0------|

Plays x2
 
Solo part 1

e|6p5-------5-6----10--13-12-10-----5--------------3|
B|----8-7h8---------------------------6----5---5h6--|
G|--------------------------------------------------|
d|--------------------------------------------------|
A|--------------------------------------------------|
D|--------------------------------------------------|

e|---------------3-5------6p5-3---3h5h6-----10h12h13|
B|--6-5--6-----6------------------------------------|
G|--------------------------------------------------|
d|--------------------------------------------------|
A|--------------------------------------------------|
D|--------------------------------------------------|

e|p12p10----5-------9--9--9--9--9--9------12---12---|
B|------------6-----10----10-10-10-10-----10--------|
G|------------------9-----9--9--9--9------9----9----|
d|--------------------------------------------------|
A|--------------------------------------------------|
D|--------------------------------------------------|

e|13--12--10------5h6p5-------5-6----10---13-12p10--|
B|----10--10-----8------8---8-----------------------|
G|----10--10----------------------------------------|
d|--------------------------------------------------|
A|--------------------------------------------------|
D|--------------------------------------------------|

e|-5-----------------3-------0---0---3-5----8--6p5--|
B|---6----5-5----5h6---6-5-6---6---6--------8------8|
G|--------------------------------------------------|
D|--------------------------------------------------|
A|--------------------------------------------------|
D|--------------------------------------------------|

e|-----5h6---10h12h13p12-10----5-------9--9--9--9--9|
B|-7h8---------------------------6----10--10-10-10-10|
G|-------------------------------------9--9--9--9--9|
D|--------------------------------------------------|
A|--------------------------------------------------|
D|--------------------------------------------------|

e|9--12-12---13-12-10--------------------------------|
B|10-10---------10-10--------------------------------|
G|9--9----------10-10-------------------------------|
D|--------------------------------------------------|
A|--------------------------------------------------|
D|--------------------------------------------------|



e|-------3h5-6-8-10-------10-10----10-10-10-10-8--6-|
B|-3h5-6------------------11-11----------11-11-8--8-|
G|------------------------12-12----------12---------|
d|--------------------------------------------------|
A|-----------------------(10)-----------------------|
D|--------------------------------------------------|

e|-10-10----10-10-10--10-5------9--9-----9-9-9--12--|
B|-10-------------10-----6------10-10--------10-----|
G|-10-------------10-----7------9--9---------9------|
D|(0)-----------------------------------------------|
A|---------------------(0)--------------------------|
D|--------------------------------------------------|

e|-13--12--10-----14---------10-10-10-10-10-10-10---|
B|-----10--10-----15---------11-------------11-11---|
G|-----10--10-----14---------12-------------12------|
D|--------------------------------------------------|
A|--------------------------------------------------|
D|--------------------------------------------------|

e|-8---6--10-10-10-10-10-10-10---5----9---9----9--9-|
B|-10--8--10-10-10-10-10-10-10---6----10--10---10-10|
G|--------10----------------10---7----9--------9----|
D|--------------------------------------------------|
A|--------------------------------------------------|
D|--------------------------------------------------|

e|-12--12--13--12--10-------------------------------|
B|-10----------10--10-------------------------------|
G|-9-----------10--10-------------------------------|
D|--------------------------------------------------|
A|--------------------------------------------------|
D|--------------------------------------------------|



dm Gm                                Dm                   A

e|---5-6-5-------5-6-----10h13-12-10---5------------|
B|-8-------8-7-8-------------------------6---5---5--|
G|--------------------------------------------------|
D|--------------------------------------------------|
A|--------------------------------------------------|
D|--------------------------------------------------|
                        dm      D               Gm

e|-----3---------0---0---3-5---5h6-5-------5-6------|
B|-5h6---6--5--6---6---6-------------8-7-8----------|
G|--------------------------------------------------|
D|--------------------------------------------------|
A|--------------------------------------------------|
D|--------------------------------------------------|
     Dm                   A           (Dm a7 dm)

e|--10h12h13-12-10---5-------9--9------9--12--12--13|
B|---------------------6-----10-----10----10--------|
G|--------------------------------9-------9---------|
D|--------------------------------------------------|
A|--------------------------------------------------|
D|--------------------------------------------------|
   Dm

e|-12--10-------------------------------------------|
B|-10--10-------------------------------------------|
G|-10--10-------------------------------------------|
D|--------------------------------------------------|
A|--------------------------------------------------|
D|--------------------------------------------------|

Plays x2

    Gm                                  Dm
e|--10-10-10-10-10-10-10--8--6--10-10-10-10-10-10-10|
B|--11-11-11-11-11-11-11--10-8--10-10-10-10-10-10-10|
G|--12-12-12-12-12-12-12--------10-10-10-10-10-10-10|
D|--------------------------------------------------|
A|--------------------------------------------------|
D|--------------------------------------------------|

                A                       dm                Gm
e|-5--1--0-0-0-0-0-0-0-1-3--1-1-3--5---10-10-10-10-10-10-10|
B|-6--3--2-2-2-2-2-2-2-2-2--3------6---11-11-11-11-11-11-11|
G|-7--2--2-2-2-2-2-2-2-2-2--2------7---12-12-12-12-12-12-12
D|---------------------------------------------------------|
A|---------------------------------------------------------|
D|---------------------------------------------------------|

         Dm                                     A
e|-8--6--10-10-10-10-10-10-10-13-10--9--9--9--9--9--9--9-|
B|-10-8--10-10-10-10-10-10-10-10-10--10-10-10-10-10-10-10|
G|-------10-10-10-10-10-10-10-10-10--9--9--9--9--9--9--9-|
D|-------------------------------------------------------|
A|-------------------------------------------------------|
D|-------------------------------------------------------|

         Dm
e|-10-12--13-12-10----------------------------------|
B|--------10----10----------------------------------|
G|--------10----10----------------------------------|
D|--------------------------------------------------|
A|--------------------------------------------------|
D|--------------------------------------------------|
Добавлено: 30.09.2015
Другие материалы по этой песне:
  • Аккорды и текст

Страница создана 30.09.2015
http://primanota.ru/misc-cartoons/wishguu-el-sol-se-recuesta-chords.htm
Привет, Гость.
Предлагаем пройти революционный курс по гитаре.
Подарок от PrimaNota.Ru, забирай!