PrimaNota.ru - самый крупный в мире бесплатный архив песенных текстов, аккордов, табулатур и нот


Misc Cartoons - Tangled - I See The Light - I See The Light - таба, видео

Регистрация Запомнить меня
Войти через:  Facebook Google Twitter Vk Yandex Mail.ru

Misc Cartoons - Tangled - I See The Light - I See The Light - таба, видео

Печатать
Просмотров: 44
Уроки эстрадного вокала в Санкт-Петербурге
Arrangement by Rob Galley - Full play through ---> https://www.youtube.com/watch?v=bse7-nCwJ1o

[Intro]

E -----------0----------------3--------
B ---------------1----------------1----
G ------0----------------0-------------
D ----2---2------------2---2-----------  X2
A --3----------3-----3----------3------
E -------------------------------------

[Verse] Rapunzel's section (...all those days...)

E --3-----1-----0-----------------0------------------------
B -----------------------0-----3--------1~0--1-------------
G --------------------0----------------------------0-------
D -----------------2-----------3-----3----------2----------
A --3--3-----3--3----------------------------3-------------
E ---------------------------------------------------------

E --3-----1-----0-----------------0------------------------
B -----------------------0-----3--------1~0--1-------------
G --------------------0----------------------------0-------
D -----------------2-----------3-----3----------2----------
A --3--3-----3--3----------------------------3-------------
E ---------------------------------------------------------

(...all that time...)

E --5-----3------------------------8-----------------------
B --------------6--------6-----8------8-----5--3-----------
G --------------------5------------------------------------
D --3--3-----3--3--3------------------------3--5-----------
A -----------------------------7---------------------------
E ---------------------------------------8-----------------

(...just how blind i've been...)

E --3-----1----0-------------------------------------------
B ----------------3--1-----3--------1--0-------------------
G ----------------------2--------0-------------------------
D -----2----2-----------------0----------------------------
A --3------------------------------------------------------
E -------------2-----------3-------------------------------

(...Now i'm here...)

E --3-----1-----0-----------------0------------------------
B -----------------------0-----3--------1~0--1-------------
G --------------------0----------------------------0-------
D -----------------2-----------3-----3----------2----------
A --3--3-----3--3----------------------------3-------------
E ---------------------------------------------------------

E --3-----1-----0-----------------0------------------------
B -----------------------0-----3--------1~0--1-------------
G --------------------0----------------------------0-------
D -----------------2-----------3-----3----------2----------
A --3--3-----3--3----------------------------3-------------
E ---------------------------------------------------------

(...standing here...)

E --5-----3--------------------7---------------------------
B --------------6--------6-----------10-----8--------8-----
G --------------------5---------------------------7--------
D --3--3-----3--3--3---------------------------9-----------
A -----------------------------7--7------7--7--------------
E ---------------------------------------------------------

E --8-----7-----5-----2-----3-----------3------------------
B -----------------------------------0---------------------
G --------------------------------0------------------------
D --------------0--0-----0-----0---------------------------
A --0--0-----0---------------------------------------------
E --------------------------3------------------------------



[Chorus](...and at last I see the light...)

E --5~7--8-------------------------------------------------
B ----------6-----6-----5--8-----------8-------------------
G -------------------------------5-----------5-------------
D ----------------------------5-----5-----5-----5----------
A -------8-----8-----8-------------------------------------
E -------------------------0-------------------------------

E --------------3------------------------------------------
B --3--------3--------6-----6~5-----5----------------------
G --------0------------------------------------------------
D ---------------------------------------------------------
A --------------------3--3-------3-------------------------
E --3--3-----------3---------------------------------------

E --5~7--8-------------------------------------------------
B ----------6-----6-----5--8-----------8-------------------
G -------------------------------5-----------5--7----------
D ----------------------------5-----5-----5----------------
A -------8-----8-----8-------------------------------------
E -------------------------0-------------------------------

E --0--------1--0------------------------------------------
B --------------------3--1-----------1---------------------
G --------------------------------2------------------------
D --------2--------------------2---------------------------
A -----2-----------------0--0------------------------------
E --0--------------0---------------------------------------

(...and it's warm and real...)

E --5~7--8-------------------------------------------------
B ----------6-----6-----5--8-----------8-------------------
G -------------------------------5-----------5--7----------
D ----------------------------5-----5-----5----------------
A -------8-----8-----8-------------------------------------
E -------------------------0-------------------------------

E --0--------1--0-------------------1----------------------
B --------------------3--3~1-----1-------------------------
G ----------------------------2----------------------------
D --------2--------------3---------------------------------
A -----2---------------------------------------------------
E --0--------------0---------------------------------------

(...all at once, everything looks different...)

E --3-----1-----0-----------------0------------------------
B -----------------------0-----3--------1~0--1-------------
G --------------------0----------------------------0-------
D -----------------2-----------3-----3----------2----------
A --3--3-----3--3----------------------------3-------------
E ---------------------------------------------------------

(...now that I see you...)

E --3-----1-----0------------------------------------------
B --------------------0------------------------------------
G ---------------------------------------------------------
D ---------------------------------------------------------
A ---------------------------------------------------------
E --1--1-----1--3--3---------------------------------------

Repeat Intro and the first part of the verse for the instrumental section 
until the line (..just how blind i've been..)

Then there's a little transition before the key change to Flynn's part

E -----------------1--3--4---------------------------------
B --1-----1--3--4------------------------------------------
G -----3---------------------------------------------------
D ---------------------------------------------------------
A ---------------------------------------------------------
E ---------------------------------------------------------

Flynn's part is played the same as Rapunzel's but with a Capo on the 3rd fret, so move everything up
3 frets. 





Добавлено: 17.08.2017
Другие материалы по этой песне:
  • Аккорды и текст

Страница создана 17.08.2017
http://primanota.ru/misc-cartoons/tangled-i-see-light-i-see-light-chords.htm
Привет, Гость.
Предлагаем пройти революционный курс по гитаре.
Подарок от PrimaNota.Ru, забирай!