PrimaNota.ru - самый крупный в мире бесплатный архив песенных текстов, аккордов, табулатур и нот


Misc Cartoons - Sushi Killer And Kevin Villecco - Anime Bae - таба

Регистрация Запомнить меня
Войти через:  Facebook Google Twitter Vk Yandex Mail.ru

Misc Cartoons - Sushi Killer And Kevin Villecco - Anime Bae - таба

Печатать
Просмотров: 111
Уроки эстрадного вокала в Санкт-Петербурге
-------------------------------------------------------------------------------------
                     Anime Bae - Sushi Killer & Kevin Villecco
-------------------------------------------------------------------------------------
Tabbed by: kirbychin
E-mail: kabichin@hotmail.com
Artists: https://www.facebook.com/sushikillermusic
         https://www.facebook.com/kevinvillecco


Tuning: Standard


0:13

e|----------------------------------------------------------------------------------|
B|-----9------7---7----4-------0---0--------9------7---7------4----0---0------------|
G|-----9------8---8----6-------4---4--------9------8---8------6----4---4------------|
D|-----9------9---9----6-------4---4--------9------9---9------6----4---4------------|
A|----------------------------------------------------------------------------------|
E|----------------------------------------------------------------------------------|


0:53

e|----------------------------------------------------------------------------------|
B|----------9-10-12-----------9--\17-16-12-9---------9----------11b12---------------|
G|-----9h11---------9~------9-------------------9------11-9-------------------------|
D|----------------------------------------------------------11----------------------|
A|----------------------------------------------------------------------------------|
E|----------------------------------------------------------------------------------|

                                                    PM PM
e|----------------------------------------------------------------------------------|
B|----17-17-16h17p16--9-----------------9-10-12-------------------------------------|
G|----------------------11-9-------9h11---------9~---9--9---------------------------|
D|----------------------------------------------------------------------------------|
A|----------------------------------------------------------------------------------|
E|----------------------------------------------------------------------------------|

e|----------------------------------------------------------------------------------|
B|-------9--\17-16-12-9---------9---------11b12-----17-17-16h17p16--9---------------|
G|-----9--------------------9-----11-9--------------------------------11-9----------|
D|-------------------------------------11-------------------------------------------|
A|----------------------------------------------------------------------------------|
E|----------------------------------------------------------------------------------|


1:21

e|----------------------------------------------------------------------------------|
B|---9--7-7-------------9--7------9--7--------9--7-7-----------9--7-----------------|
G|----------8--4--\9----------9---------9------------8--4--\9--------9~-------------|
D|----------------------------------------------------------------------------------|
A|----------------------------------------------------------------------------------|
E|----------------------------------------------------------------------------------|


1:48

e|----------------------------------------------------------------------------------|
B|----9-----------9----------9---------9----------9-----------9---------------------|
G|------11-9--------11-9-----------------11-9-------11-9----------------------------|
D|-----------11----------11-------------------11---------11-------------------------|   
A|----------------------------------------------------------------------------------|
E|----------------------------------------------------------------------------------|

e|----------------------------------------------------------------------------------|
B|----9-----------9----------9---------9----------9-----------9---------------------|
G|------11-9--------11-9-----------------11-9-------11-9----------------------------|
D|-----------11----------11-------------------11---------11-------------------------|   
A|----------------------------------------------------------------------------------|
E|----------------------------------------------------------------------------------|

e|----------------------------------------------------------------------------------|
B|----9-----------9----------9---------9----------9-----------9---------------------|
G|------11-9--------11-9-----------------11-9-------11-9----------------------------|
D|-----------11----------11-------------------11---------11-------------------------|   
A|----------------------------------------------------------------------------------|
E|----------------------------------------------------------------------------------|

e|----------------------------------------------------------------------------------|
B|----9-----------9----------9---------9----------9-----------9---------------------|
G|------11-9--------11-9-----------------11-9-------11-9----------------------------|
D|-----------11----------11-------------------11---------11-------------------------|   
A|----------------------------------------------------------------------------------|
E|----------------------------------------------------------------------------------|


 2:15

e|----------------------------------------------------------------------------------|
B|---9--7-7-------------9--7------9--7--------9--7-7-----------9--7-----------------|
G|----------8--4--\9----------9---------9------------8--4--\9--------9~-------------|
D|----------------------------------------------------------------------------------|
A|----------------------------------------------------------------------------------|
E|----------------------------------------------------------------------------------|


2:42

e|----------------------------------------------------------------------------------|
B|----------9-10-12-----------9--\17-16-12-9---------9----------11b12---------------|
G|-----9h11---------9~------9-------------------9------11-9-------------------------|
D|----------------------------------------------------------11----------------------|
A|----------------------------------------------------------------------------------|
E|----------------------------------------------------------------------------------|

                                                    PM PM PM
e|----------------------------------------------------------------------------------|
B|----17-17-16h17p16--9-----------------9-10-12-------------------------------------|
G|----------------------11-9-------9h11---------9~---9--9--9------------------------|
D|----------------------------------------------------------------------------------|
A|----------------------------------------------------------------------------------|
E|----------------------------------------------------------------------------------|

e|----------------------------------------------------------------------------------|
B|-------9--\17-16-12-9---------9---------11b12-----17-17-16h17p16--9---------------|
G|-----9--------------------9-----11-9--------------------------------11-9----------|
D|-------------------------------------11-------------------------------------------|
A|----------------------------------------------------------------------------------|
E|----------------------------------------------------------------------------------|


3:07

e|----------------------9-----------------------------------------------------------|
B|-----9-7-----9-\12-/9---9h12p9--7-9----9-7----------------------------------------|
G|-------------------------------------------9-6-8-9-8-6----------------------------|
D|-------------------------------------------------------9--------------------------|
A|----------------------------------------------------------------------------------|
E|----------------------------------------------------------------------------------|

e|----------------------------------------------------------------------------------|
B|-------------9-12----14-16-17-16-14----14-----------------------------------------|
G|-----9-8--11------------------------16----16-13----13-----------------------------|
D|------------------------------------------------16----16-14-13----13-14-13--------|
A|---------------------------------------------------------------16----------16-14--|
E|----------------------------------------------------------------------------------|



3:27

e|----------------------------------------------------------------------------------|
B|----9--7------------12-10-9---------9-------------9-12----------------------------|
G|----------8--4--------------11-9-11---11-----9h11------11-9-----------------------|
D|----------------------------------------------------------------------------------|
A|----------------------------------------------------------------------------------|
E|----------------------------------------------------------------------------------|

e|-------------------------------------12-------------------------------------------|
B|----------------------------------------------------------------------------------|
G|---9--8h9p8-----------------------9-----------------------------------------------|
D|---------------9-11---------------------------------------------------------------|
A|------------11------9----9-----7--------------------------------------------------|
E|----------------------------------------------------------------------------------|


************************************

| /   slide up
| \   slide down
| h   hammer-on
| p   pull-off
| ~   vibrato
| +   harmonic
| x   Mute note
| b   Bend
| pb  Pre-bend
| br  Bend release
| pbr Pre-bend release
| brb Bend release bend

************************************


Enjoy!

Добавлено: 18.04.2016
Другие материалы по этой песне:
  • Аккорды и текст

Страница создана 18.04.2016
http://primanota.ru/misc-cartoons/sushi-killer-and-kevin-villecco-anime-bae-chords.htm
Привет, Гость.
Предлагаем пройти революционный курс по гитаре.
Подарок от PrimaNota.Ru, забирай!