PrimaNota.ru - самый крупный в мире бесплатный архив песенных текстов, аккордов, табулатур и нот


Misc Cartoons - Steven Universe - What Can I Do For You - аккорды и текст, видео

Регистрация Запомнить меня
Войти через:  Facebook Google Twitter Vk Yandex Mail.ru

Misc Cartoons - Steven Universe - What Can I Do For You - аккорды и текст, видео

Печатать
Просмотров: 321
Steven Universe - What Can I Do For You
Misc Cartoons
-------------------------------------------------------------------------------
       WHAT CAN I DO FOR YOU? - Steven Universe S02E12 - We Need to Talk
-------------------------------------------------------------------------------

Chords for the whole song except the solo at the end. Bass notes under the the
solo seem to repeat the chorus progression. Some parts are strummed, but some
parts have a picked pattern. I've included tabs for the picked sections.

-------------------------------------------------------------------------------

Tabs for picked sections:

   G
e|-------3-----------3--
B|-------3-----------3--
G|-------4-----------4--
D|---5---5-------5---5--
A|-----5-5---------5-5--
E|-3-----------3--------

   Bm    [CHORUS]               [VERSE]
e|-------2-----------2--|-------7-----------7--
B|-------3-----------3--|-------7-----------7--
G|---4---4-------4---4--|-------7-----------7--
D|-----4-4---------4-4--|---9---9-------9---9--
A|-2-----------2--------|-----9-----------9----
E|----------------------|-7-----------7--------

   Em
e|-------7-----------7--
B|-------8-----------8--
G|---9---9-------9---9--
D|-----9-9---------9-9--
A|-7-----------7--------
E|----------------------

-------------------------------------------------------------------------------


[INTRO]

(strummed)
D C7 G


[CHORUS]

(picked)
G                  Bm
 What can I do for you?


G
 What can I do that

(strummed)
Bm              D
No-one else can do?

(picked)
G                  Bm
 What can I do for you?

                   (strummed)
G                  Bm
 What can I do for you?


[VERSE]

      (picked)
      Em                   Bm
Human man, you are so much fun,


         Em                        
I hadn't planned on finding you

(strummed)
D               F#7
Quite this entertaining,

            (picked)
            Em                    Bm
I like your band, and I like your song,

           (strummed)
           D                C7
I like the way human beings play,


               G
I like playing along,

Whoahoahoahoahoahoah,

[CHORUS]

(picked)
G                  Bm
 What can I do for you?


G
 What can I do that

(strummed)
Bm              D
No-one else can do?

(picked)
G                  Bm
 What can I do for you?

                   (strummed)
G                  Bm
 What can I do for you?
Добавлено: 30.09.2015
Другие материалы по этой песне:
  • Аккорды и текст

Страница создана 30.09.2015
http://primanota.ru/misc-cartoons/steven-universe-what-can-i-do-for-you-chords.htm
Привет, Гость.
Предлагаем пройти революционный курс по гитаре.
Подарок от PrimaNota.Ru, забирай!