PrimaNota.ru - самый крупный в мире бесплатный архив песенных текстов, аккордов, табулатур и нот


Misc Cartoons - Steven Universe - Tower Of Mistakes - аккорды и текст

Регистрация Запомнить меня
Войти через:  Facebook Google Twitter Vk Yandex Mail.ru

Misc Cartoons - Steven Universe - Tower Of Mistakes - аккорды и текст

Печатать
Просмотров: 128
Steven Universe - Tower Of Mistakes
Misc Cartoons
========Steven Universe - Tower of Mistakes by Jeff Liu========

E|-----------------------------------|
B|-----------------------------------|
G|-----------------------------------|
D|-----------------------------------|
A|--3-------------2---------------0--|
E|-----------------------------------|
     Maybe you're better off with her

E|-----------------------------------|
B|-----------------------------------|
G|-----------------------------------|
D|-----------------------------------|
A|--3--------------2----------0------|
E|-----------------------------------|
     I think she's better for you

E|-----------|
B|-----------|
G|-----------|
D|----0-2-3--|
A|--3--------|
E|-----------|

F7M    C     Dm       C          Em (lightly palm mute)
I forgot how great it felt to be us
             Baug
Guess I got (pause) carried away

F7M                 Em7
I had to use you to make me feel strong
            Am   Em7^       C   Em7^
But I don't care about that now
F7M                 Em7
I see a tower built out of my mistakes
       Am        Em7^     Em7^   C
And it all comes crashing down

Dm7^     Em7^            F        Em7^
Is there something I can doo-oo
Dm7^     Em7^            F        Em7^
Is there something I can doo-oo-oo
Dm7^     Em7^            F        Em7^
Is there something I can doo-oo
      Em7^    Em7^  Dm7^ C7M  
Can I make it up    to   you?


NOTE: the single note intro can also be played with full chords as C Em Am x2

============Chords============

EADGBE
x32010 C
022000 Em
x02210 Am
xx3210 F7M  
xx0231 Dm
x2100x Baug
022030 Em7
x57565 Dm^
x79787 Em7^
x81010108 F
x35453 C7M  

Some of the weirder chords (like the Baug) from a sheet music transcription on tumblr by Tesselode. 
Добавлено: 26.02.2016
Другие материалы по этой песне:
  • Аккорды и текст

Страница создана 26.02.2016
http://primanota.ru/misc-cartoons/steven-universe-tower-of-mistakes-chords.htm
Привет, Гость.
Предлагаем пройти революционный курс по гитаре.
Подарок от PrimaNota.Ru, забирай!