PrimaNota.ru - самый крупный в мире бесплатный архив песенных текстов, аккордов, табулатур и нот


Misc Cartoons - Steven Universe - Havent You Noticed Im A Star - бас-таба, видео

Регистрация Запомнить меня
Войти через:  Facebook Google Twitter Vk Yandex Mail.ru

Misc Cartoons - Steven Universe - Havent You Noticed Im A Star - бас-таба, видео

Печатать
Просмотров: 80
Уроки эстрадного вокала в Санкт-Петербурге
Steven Universe - Haven't You Noticed I'm a Star

Tabbed by: Ash (XxThreeCheersxX)
email: burdickash@gmail.com

Tuning: Drop D

Bass comes in at 0:30 ("Well everybody needs a friend...")
G|----------------------------------------------------------------------------------------------|
D|----------------------------------------------------------------------------------------------|
A|--------------------------3------3--3--3--3--3---------------5-------------2----2--3~---------|
D|-14\2----2--2--2----2--2------------------------0----0--0-------0--5----5---------------------|

"Haven't you noticed I'm a star..."
G|------------------------------|
D|------------------------------|
A|------5----3----3-3----3-3----| x 3
D|-5----------------------------|

"Now everyone can see me burning..."
G|-----------------------------------------------------------------------------------------|
D|-----------------------------------------------------------------------------------------|
A|-7----5----3----3-3----3-3----7----5----3----3-3----3-3----7~------------------7~--------|
D|---------------------------------------------------------------------9~------------------|

Happy playing!

************************************

| x   Dead note
| g   Grace note
| (n) Ghost note
| h   Hammer-on
| p   Pull-off
| r   Release
| >   Accented note
| t   Tapping
| b   Bend
| br  Bend release
| pb  Pre-bend
| pbr Pre-bend release
| /   Slide up
| \   Slide down
| ~   Vibrato
| s   Slap
| P   Pop
| PM  Palm mute
| TR  Trill
| N   Tremolo

************************************
Добавлено: 17.08.2017
Другие материалы по этой песне:
  • Аккорды и текст

Страница создана 17.08.2017
http://primanota.ru/misc-cartoons/steven-universe-havent-you-noticed-im-a-star-chords.htm
Привет, Гость.
Предлагаем пройти революционный курс по гитаре.
Подарок от PrimaNota.Ru, забирай!