PrimaNota.ru - самый крупный в мире бесплатный архив песенных текстов, аккордов, табулатур и нот


Misc Cartoons - Ranma 12 Theme - бас-таба, видео

Регистрация Запомнить меня
Войти через:  Facebook Google Twitter Vk Yandex Mail.ru

Misc Cartoons - Ranma 12 Theme - бас-таба, видео

Печатать
Просмотров: 142
-------------------------------------------------------------------------------
                              Ranma 1/2 Theme
-------------------------------------------------------------------------------

Song: Ranma 1/2 (First opening), "Don't Make me Wild Like You"
Tabbed by: GJ Solano
One of my favorites openings of all time, such a classic.
This is very funny to play, just listen the song, note by note.
Link: www.youtube.com/watch?v=RyUafPDFKds
Tuning: EADG

Intro:
"Japanese tune"
G|-----------|----------------|
D|-----------|----5h3---------|
A|-----------|--------5-3-0---|
E|-----------|----------------|

Pre-verse:
G|----------|---------|---------|------------|
D|----------|---------|---------|------------|
A|3---3-3--3|3--3-3--3|3--3-3--3|3--3--------|
E|----------|---------|---------|-----0-1-4-1|

G|----------|---------|---------|-------|
D|----------|---------|---------|-------|
A|3---3-3--3|3--3-3--3|3--3-3--3|3-3--3-|
E|----------|---------|---------|-------|

"Before you, boys got on their knees..."
G|------------|------------|---------|-----------|-----------|------------|
D|------------|--2---------|---------|---5-------|-----------|--2---------|
A|3---2-3-3--5|--------3--2|3---2-3-3|-3------3--|3--2-3-3--5|--------3--2|
E|------------|----0-5-----|---------|----5-0----|-----------|----0-5-----|

"Ranma, Ranma you- stole my heart and you..."
G|----------|----------|----------|----------|
D|----------|----------|----------|--5-------|
A|3--2-3-3--|3--2-3-3--|3--2-3-3--|3-------3-|
E|----------|----------|----------|----5-0---|

Breakdown:
G|----------|----------|----------|----------|
D|----------|----------|----------|----------|
A|3-2-1-0---|0-0--0----|3-2-1-0---|0-0--0----|
E|----------|----------|----------|----------|

Pre-chorus:
"Somebody tell me why it's so hard..."
G|-----5-5-4-7|-------5-5-4-7|
D|------------|--5--5--------|
A|5--5--------|--------------|x3
E|------------|--------------|

G|-----5-5-4-7|------------|
D|------------|--5--5-5----|
A|5--5--------|------------|
E|------------|------------|

Chrous:
"Before you come in like a breeze..."
G|---------|--------------|-----------|
D|------5--|--------------|------5-5--|
A|8--8----7|-7-----------5|8--8-------|
E|---------|---8-7-5-7-8--|-----------|

G|-------|---------|------------|----------|---------|
D|-------|------5--|------------|--------3-|--------2|
A|--5----|8--8----7|-7---------3|2--2--5---|------3--|
E|5---8-5|---------|---8-7-5--3-|----------|5--5-----|
|
G|-----------|------------|----------|---------|
D|-----------|------------|---------3|--------2|
A|5--3-5-5--3|5-5-3---5-5-|2--2--5---|-----3---|
E|-----------|------5-----|----------|5--5-----|

"But just tonight it's all right...."
G|----------|--------------|
D|----------|--------------|
A|--8~--7~--|--10-10-------|x2
E|----------|---------7--7-|

"Everytime your eyes turn into me. Ranma, Ranma you make me..."
G|------------|------------|---------|-----------|-----------|------------|
D|------------|--2---------|---------|---5-------|-----------|--2---------|
A|3---2-3-3--5|--------3--2|3---2-3-3|-3------3--|3--2-3-3--5|--------3--2|
E|------------|----0-5-----|---------|----5-0----|-----------|----0-5-----|


"Ranma, Ranma you've gone and done it true..."
G|----------|----------|----------|----------|
D|----------|----------|----------|--5-------|
A|3--2-3-3--|3--2-3-3--|3--2-3-3--|3-------3-|
E|----------|----------|----------|----5-0---|

| /  slide up
| \  slide down
| h  hammer-on
| p  pull-off
| ~  vibrato
| +  harmonic
| x  Mute note
===============================================================================
Добавлено: 30.03.2015
Другие материалы по этой песне:

Страница создана 23.03.2012
http://primanota.ru/misc-cartoons/ranma-12-theme-chords.htm
Привет, Гость.
Предлагаем пройти революционный курс по гитаре.
Подарок от PrimaNota.Ru, забирай!