PrimaNota.ru - самый крупный в мире бесплатный архив песенных текстов, аккордов, табулатур и нот


Misc Cartoons - Rango - Welcome To Dirt - таба

Регистрация Запомнить меня
Войти через:  Facebook Google Twitter Vk Yandex Mail.ru

Misc Cartoons - Rango - Welcome To Dirt - таба

Печатать
Просмотров: 210
Уроки эстрадного вокала в Санкт-Петербурге
-------------------------------------------------------------------------------
                             Welcome to Dirt - Hans Zimmer
-------------------------------------------------------------------------------
Tabbed by: cosme13
Email: cosme37@yahoo.com

This is my 1st tab (Yay!), so i thought, might as well tab a song that's not on 
Ultimate-Guitar yet! This is Welcome to Dirt off the movie Rango. This is 99.999% right, the 
timing is horribly wrong, so listen to the song to get the timings!


Tuning: Standard

e|---------------------------------------------------------------------------|
B|---------------------------------------------------------------------------|
G|---------5--7/9-----7--(7)-(7)-----------5--7--5------7--------------------|
D|--5--7--------------5--(5)-(5)---5--7-------------7---7--------------------|
A|---------------------------------------------------------------------------|
E|---------------------------------------------------------------------------|

e|---------------------------------------------------------------------------|
B|---------------------------------------------------------------------------|
G|--------5------------------5---------------5-------------------------------|
D|----5---5--------------7------5--------7------5----------------------------|
A|--------7------------------------------------------------------------------|
E|---------------------------------------------------------------------------|

e|---------------------------------------------------------------------------|
B|---------------------------------------------------------------------------|
G|---------5-----------------5----------------------5--7---------------------|
D|---5h7------7~~~-------5h7-----5~~~---------5h7----------------------------|
A|---------------------------------------------------------------------------|
E|---------------------------------------------------------------------------|

e|---------------------------------------------------------------------------|
B|---------------------------------------------------------------------------|
G|--7h9p7/5--------------------5---------------------------------------------|
D|----------7--------------5h7---7----------------------9-5----7-------------|
A|-------------------------------------------------------------7-------------|
E|-------------------------------------------------------------5-------------|

FIN! All the Vibratos can be played as just regular holds, it sounds fine either way.


************************************

| /   slide up
| \   slide down
| h   hammer-on
| p   pull-off
| ~   vibrato
| +   harmonic
| x   Mute note
| b   Bend
| pb  Pre-bend
| br  Bend release
| pbr Pre-bend release
| brb Bend release bend

************************************
Добавлено: 03.03.2012
Другие материалы по этой песне:

Страница создана 03.03.2012
http://primanota.ru/misc-cartoons/rango-welcome-to-dirt-chords.htm
Привет, Гость.
Предлагаем пройти революционный курс по гитаре.
Подарок от PrimaNota.Ru, забирай!