PrimaNota.ru - самый крупный в мире бесплатный архив песенных текстов, аккордов, табулатур и нот


Misc Cartoons - My Little Pony Friendship Is Magic - Days Gone By - аккорды и текст, видео

Регистрация Запомнить меня
Войти через:  Facebook Google Twitter Vk Yandex Mail.ru

Misc Cartoons - My Little Pony Friendship Is Magic - Days Gone By - аккорды и текст, видео

Печатать
Просмотров: 41
My Little Pony Friendship Is Magic - Days Gone By
Misc Cartoons
Part of the album "My Little Pony: A Pony Kind of Christmas"
This is a redone version of the holiday song 
"Auld Lang Syne" with different lyrics from the
traditional song
Sung by Ashleigh Ball, Michelle Creber, and Tabitha St. Germain
with choir
Lyrics from the mlp wikia
Legend for tab markings is at the bottom of the tab

-Listening to the song while playing will greatly help
fix any confusion while playing during the choir's part
-Important stuff is marked inside []
-Go straight to chords after intro tab
-Chords are played using the patterns below
unless it's stated otherwise when it switches
to [strumming]

         Chord Patterns            Em is played
  Short Chords    Long Chords       like this
e|----x---0---|----x---0---0----| |Em---3-----|  
B|----0--0----|----0--0-0-0-----| |-----3-----| 
G|----0-0-----|----0-0---0------| |-----0-----| 
D|----0-------|----0------------| |-----2-----|
A|----0-------|----0------------| |-----2-----|
E|----0-------|----0------------| |-----0-----|
I'm calling these^ patterns
[picking] for reference so that
you know when to change to them


------------------------------------------------------------------
Intro

e|--x-----x-----x----5p2-----x---3-x-----x-----x----------|
B|--3---3-2---2-3---3----5p3-0--0--3--3--3--3--2--2-------|
G|--3--3--2--2--2--2---------0-0---2-2-2-3-3-3-2-2-2------|
D|--4-4---2-2---0-0----------0-----0-----4-----2----------|
A|--2-----0-----0------------2-----0-----2-----0----------|
E|--2-----0-----x------------3-----x-----2-----0----------|

e|--x-----x---0-x----5p2-----x---3-x---5-x-----x----------|
B|--3---3-2-----3---3----5p3-0--3--2--2--3--3--2--2-------|
G|--3--3--2--2--2--2---------0-0---2-2---3-3-3-2-2-2------|
D|--4-4---2-2---0-0----------2-----2-----4-----2----------|
A|--2-----0-----0------------2-----0-----2-----0----------|
E|--2-----0-----x------------0-----0-----2-----0----------|

[Applejack]

[picking]
      D         A 
 When family cannot be here 
        D                 G      
 Havin' journeyed far and wide 
    D              A     
 We sing a song to honor them 
    Bm      A          D       
 To remember days gone by 

[Applejack and Apple Bloom]

    D                 A       
 So take your cup and raise it high 
         D              G      
 Just as surely I'll do mine 
     D                A     
 And laugh we will at stories told 
       Bm   A             Em          
 As we smile at days gone by 
       Bm      A          D [hold out chord]
 As we smile at days gone by 

[Applejack, Apple Bloom, and Granny Smith]

     D          A      
 For family not here, my dears 
        D                 G      
 Havin' journeyed far and wide 
     D           A     
 For loyalty and kindness both 
    Bm   A             Em     
 We smile at days gone by 

[Choir]

D 

G D 

D A 

Bm A  

D 

Em 

Bm A

[Applejack]

     D    [strumming]  A      
 Our paths will cross again one day 
    D           G     
 In time to reunite 
     D         A     
 For family is always near 
      Em   A            Bm
 Even when the seas are wide 

[Applejack and Apple Bloom]

    D                 A       
 So take your cup and raise it high 
         D              G   
 Just as surely I'll do mine 
     D                A    
 And make a toast for family 
         Em   A             Bm  A    
 And the tales of days gone by 

[All]

     D          A      
 For family not here, my dears 
        D                 G      
 Havin' journeyed far and wide 
     D           A     
 For loyalty and kindness both 
      Em  A            Bm  A    
 Take joy at days gone by 

[picking]
     D           A  
 For loyalty and kindness both 
    Bm   A             D       
 We smile at days gone by 


************************************

| /   slide up
| \   slide down
| h   hammer-on
| p   pull-off
| ~   vibrato
| +   harmonic
| x   Mute note
| b   Bend
| pb  Pre-bend
| br  Bend release
| pbr Pre-bend release
| brb Bend release bend

************************************
Добавлено: 26.02.2016
Другие материалы по этой песне:
  • Аккорды и текст

Страница создана 26.02.2016
http://primanota.ru/misc-cartoons/my-little-pony-friendship-is-magic-days-gone-by-chords.htm
Привет, Гость.
Предлагаем пройти революционный курс по гитаре.
Подарок от PrimaNota.Ru, забирай!