PrimaNota.ru - самый крупный в мире бесплатный архив песенных текстов, аккордов, табулатур и нот


Misc Cartoons - My Little Pony Friendship Is Magic - Art Of The Dress - таба, видео

Регистрация Запомнить меня
Войти через:  Facebook Google Twitter Vk Yandex Mail.ru

Misc Cartoons - My Little Pony Friendship Is Magic - Art Of The Dress - таба, видео

Печатать
Просмотров: 427
Уроки эстрадного вокала в Санкт-Петербурге
Art of the Dress (Melody) - Guitar - My Little Pony: Friendship is Magic

Tabbed by: jhamre01 (jhamre01@gmail.com)
Tuning: Standard

The notes on the B string, 8th fret, can be substituted for 12th-fret G if that is 
easier for you.

There are probably some errors in the Bridge and Fifth Verse, but that's what the melody 
sounded like. Have fun and rock on, bronies!

  First Verse
E|----------|------------|----------|
B|----------|------------|----------|
G|-8-10-8~~-|---8-10-8~--|-8-10-8~~-|
D|----------|-8----------|----------|
A|----------|------------|----------|
E|----------|------------|----------|

 |----------------|-----------------|
 |-------8--------|-------8---------|
 |---8-8---10-8-8-|---8-8---10-8~---|
 |-8--------------|-8-------------8-|
 |----------------|-----------------|
 |----------------|-----------------|

 |------------------|------------------|
 |-------8----------|-------8----------|
 |---8-8---10-8-8---|---8-8---10-8-8-8-|
 |-8----------------|-8----------------|
 |------------------|------------------|
 |------------------|------------------|

 |------------------|------------------|
 |-------8----------|-----------8~~----|
 |---8-8---10-8-8-8-|---8-8~~10------8-|
 |-8----------------|-8----------------|
 |------------------|------------------|
 |------------------|------------------|
  Second Verse
 |----------|------------|----------|
 |----------|------------|----------|
 |-8-10-8~~-|---8-10-8~--|-8-10-8~~-|
 |----------|-8----------|----------|
 |----------|------------|----------|
 |----------|------------|----------|

 |----------------|-----------------|
 |-------8--------|-------8---------|
 |---8-8---10-8-8-|-8-8-8---10-8~---|
 |-8--------------|---------------8-|
 |----------------|-----------------|
 |----------------|-----------------|

 |------------------|-----------------|
 |-------8----------|-------------8-8-|
 |---8-8---10-8-8---|---8-10-8-10-----|
 |-8----------------|-8---------------|
 |------------------|-----------------|
 |------------------|-----------------|

 |-----------------|-----------------|
 |-------------8---|---------8~------|
 |---8-10-8-10---8-|----8-8~----10-8-|
 |-8---------------|-8~--------------|
 |-----------------|-----------------|
 |-----------------|-----------------|

 |--------------|------------------|
 |--------------|------------------|
 |-8--10~-8-8---|---8-8-8-10-10-8~-|
 |------------8-|-8----------------|
 |--------------|------------------|
 |--------------|------------------|

 |--------------|------------------|
 |--------------|------------------|
 |-8-8-10-8-8---|-----8-8-10-10-8~-|
 |------------8-|-8-8--------------|
 |--------------|------------------|
 |--------------|------------------|
  Third Verse
 |----------|------------|----------|
 |----------|---------8~-|----------|
 |-8-10-8~~-|---8-10-----|-8-10-8~~-|
 |----------|-8----------|----------|
 |----------|------------|----------|
 |----------|------------|----------|

 |----------------|-----------------|
 |-------8--------|-------8---------|
 |---8-8---10-8-8-|---8-8---10-8~-8-|
 |-8--------------|-8---------------|
 |----------------|-----------------|
 |----------------|-----------------|

 |-----------------|----------------|
 |-----------------|-------8--------|
 |---8-8---8-10-10-|---8-8---10-8-8-|
 |-8-----8---------|-8--------------|
 |-----------------|----------------|
 |-----------------|----------------|

 |--------------|----------------|
 |------------8-|-----------8~---|
 |-8---8---10---|---8-8~-10----8-|
 |---8---8------|-8--------------|
 |--------------|----------------|
 |--------------|----------------|
  First Chorus
 |-------|--------|-------|--------|
 |-8-----|--------|-------|--------|
 |---8-8-|-10-8-8-|-8---8-|-10-8-8-|
 |-------|--------|---8---|--------|
 |-------|--------|-------|--------|
 |-------|--------|-------|--------|

 |-------|--------|-------|--------|
 |-8-----|--------|-------|--------|
 |---8-8-|-10-8-8-|-8---8-|-10-8-8-|
 |-------|--------|---8---|--------|
 |-------|--------|-------|--------|
 |-------|--------|-------|--------|

 |------------------|
 |------------9-11~~|
 |-8-8-8-10-8-------|
 |------------------|
 |------------------|
 |------------------|
  Fourth Verse
 |----------|------------|----------|
 |----------|------------|----------|
 |-8-10-8~~-|---8-10-8~--|-8-10-8~~-|
 |----------|-8----------|----------|
 |----------|------------|----------|
 |----------|------------|----------|

 |----------------|------------------|
 |-------8--------|-------8----------|
 |---8-8---10-8-8-|---8-8---10-8-8---|
 |-8--------------|-8--------------8-|
 |----------------|------------------|
 |----------------|------------------|

 |----------------|------------------|
 |-------8--------|-------8----------|
 |---8-8---10---8-|---8-8---10-8-8---|
 |-8----------8---|-8--------------8-|
 |----------------|------------------|
 |----------------|------------------|

 |----------------|------------------|
 |-------8--------|-------8~---------|
 |---8-8---10---8-|---8-8----10-8-8~-|
 |-8----------8---|-8----------------|
 |----------------|------------------|
 |----------------|------------------|
  Bridge
 |---------|-----------|---------------|--------|
 |---------|-----------|---------------|--------|
 |-8-10-8~-|---8-8/10~-|---8-88-10-8---|-8-10-8-|
 |---------|-8---------|-8-----------8-|--------|
 |---------|-----------|---------------|--------|
 |---------|-----------|---------------|--------|

 |----------------|------------------|
 |-9-9-9-9-8-9-11-|-9-9-9-11-9-8-9-9-|
 |----------------|------------------|
 |----------------|------------------|
 |----------------|------------------|
 |----------------|------------------|

 |----------------|-----------------------|
 |-9-9-9-9-8-9-11-|-9-9-9-11-9-8-9-9~~-11~|
 |----------------|-----------------------|
 |----------------|-----------------------|
 |----------------|-----------------------|
 |----------------|-----------------------|

 |--------------|------------------|
 |--------------|------------------|
 |-8--10~-8-8---|---8-8-8-10-10-8~-|
 |------------8-|-8----------------|
 |--------------|------------------|
 |--------------|------------------|

 |--------------|-----------------------|
 |--------------|-----------------------|
 |-8--10~-8-8---|---8-8-8--8-8-10-10-8~-|
 |------------8-|-8---------------------|
 |--------------|-----------------------|
 |--------------|-----------------------|
  Fifth Verse
 |------------------|----------------|
 |-------8----------|-------8--------|
 |---8-8---10-8-8---|---8-8--------8-|
 |-8--------------8-|-8-------8-10---|
 |------------------|----------------|
 |------------------|----------------|

 |------------------|----------------|
 |-------8----------|-------8--------|
 |---8-8---10-8-8-8-|---8-8--------8-|
 |-8----------------|-8-------8-10---|
 |------------------|----------------|
 |------------------|----------------|

 |----------------|------------------|
 |-------8--------|-------8----------|
 |---8-8--------8-|---8-8---10-8-8-8-|
 |-8-------8-10---|-8----------------|
 |----------------|------------------|
 |----------------|------------------|

 |------------------|---------------------|
 |-------8----------|------8-8---9-9/11~~-|
 |---8-8--------8-8-|-8-10-----8----------|
 |-8-------8-10-----|---------------------|
 |------------------|---------------------|
 |------------------|---------------------|
  Third Chorus
 |-------|--------|-------|--------|
 |-8-----|--------|-------|--------|
 |---8-8-|-10-8-8-|-8---8-|-10-8-8-|
 |-------|--------|---8---|--------|
 |-------|--------|-------|--------|
 |-------|--------|-------|--------|

 |-------|--------|-------|--------|
 |-8-----|--------|-------|--------|
 |---8-8-|-10-8-8-|-8---8-|-10-8-8-|
 |-------|--------|---8---|--------|
 |-------|--------|-------|--------|
 |-------|--------|-------|--------|

 |------------------|
 |------------9-11~~|
 |-8-8-8-10-8-------|
 |------------------|
 |------------------|
 |------------------|
Добавлено: 25.03.2012
Другие материалы по этой песне:

Страница создана 25.03.2012
http://primanota.ru/misc-cartoons/my-little-pony-friendship-is-magic-art-of-the-dress-chords.htm
Привет, Гость.
Предлагаем пройти революционный курс по гитаре.
Подарок от PrimaNota.Ru, забирай!