PrimaNota.ru - самый крупный в мире бесплатный архив песенных текстов, аккордов, табулатур и нот


Misc Cartoons - Love Live - Yume No Tobira - аккорды и текст, видео

Регистрация Запомнить меня
Войти через:  Facebook Google Twitter Vk Yandex Mail.ru

Misc Cartoons - Love Live - Yume No Tobira - аккорды и текст, видео

Печатать
Просмотров: 166
Love Live - Yume No Tobira
Misc Cartoons
Love Live! ラブライブ!
Yume no Tobira

(intro)/(electric solo)
  G#        A#       D#         Cm
Yume no tobira zutto sagashi tsudzuketa
     G#         Gm      B          C#    D#
Kimi to boku to no tsunagari o sagashi teta

               D#      G#      A#        Gm       Cm           G#       A#        D#
e|----------------------------------------------------------------------------------|
B|-8h9p8-6----------6-8-8-6--/8-6---6-8-9-9-/11-8--8---8-9-/11-11-9---6--8--6-------|
G|---------8-7-8---8-------8----------------------------------------8--------8--7-8-|
D|----------------8----------------8------------------8-----------------------------|
A|----------------------------------------------------------------------------------|
E|----------------------------------------------------------------------------------|


(verse)
C          G       Am       G        F       
Yes! Jibun o shinjite minna o shinjite
       C        F         G
Ashita ga matterun dayo ikanakucha

C          G         Am          G        F
Yes! Yokan no hoshitachi mune ni futte kita
      C        F      G          G# 
Kagayake... mayoinagara tachiagaru yo 


(pre-chorus)
               Gm              Fm      A#         D#
Tsukareta toki ni boku o hagemasu kimi no egao wa saikou
     B                  A#m     F#
Soshite sukoshi zutsu susumun dane
 G#m       A#m  Bm            E  F#
Tokimeki e no kagi wa koko ni arusa


(chorus)
  G#        A#        D#         Cm
Yume no tobira daremo ga sagashi teru yo
  G#       Gm      Fm         A#
Deai no imi o mitsuketai to negatteru
  G#        A#       D#         Cm
Yume no tobira zutto sagashi tsudzukete
     G#         Gm     B         C#   D#  C#
Kimi to boku to de tabidatta ano kisetsu
    B          C#   D#
Seishun no puroroogu


(outro)/(electric solo)
               D#      G#      A#        Gm       Cm           G#       A#        D#
e|----------------------------------------------------------------------------------|
B|-8h9p8-6----------6-8-8-6--/8-6---6-8-9-9-/11-8--8---8-9-/11-11-9---6--8--6-------|
G|---------8-7-8---8-------8----------------------------------------8--------8--7-8-|
D|----------------8----------------8------------------8-----------------------------|
A|----------------------------------------------------------------------------------|
E|----------------------------------------------------------------------------------|

Добавлено: 15.09.2015
Другие материалы по этой песне:
  • Аккорды и текст

Страница создана 15.09.2015
http://primanota.ru/misc-cartoons/love-live-yume-no-tobira-chords.htm
Привет, Гость.
Предлагаем пройти революционный курс по гитаре.
Подарок от PrimaNota.Ru, забирай!