PrimaNota.ru - самый крупный в мире бесплатный архив песенных текстов, аккордов, табулатур и нот


Misc Cartoons - Love Live - Arifureta Kanashimi No Hate - аккорды и текст

Регистрация Запомнить меня
Войти через:  Facebook Google Twitter Vk Yandex Mail.ru

Misc Cartoons - Love Live - Arifureta Kanashimi No Hate - аккорды и текст

Печатать
Просмотров: 155
Love Live - Arifureta Kanashimi No Hate
Misc Cartoons
Love Live! ラブライブ!
Ayase Eli (VA:Nanjou Yoshino)
Arifureta Kanashimi No Hate


(intro)
  F#m    D         A     E         F#m    D         A     E
e|-5---------5-4-5------------5-4-5-----------5-4-5---------------------|
B|-2-----2---2-1-2----0-------2-1-2-------2---2-1-2----0------0---------|
G|------2-2----------2---1---------------2-2----------2---1---1---------|
D|-----4-0----------2-------------------4-0----------2------------------|
A|----4------------0-------------------4------------0-------2-----------|
E|-2-2-------------------0----------2-2-------------------0-------------|


(verse)
F#m      D          A        E
Kitto shirazuni ita hou ga yokatta? 
F#m    D            E
Sonna itami o kakaenagara
F#m        D         A       E 
Nani ni mo iwazu waraunda mainichi
F#m    D         E 
Wasureyou to iikikasete 


(pre-chorus)
C#     D E          D  C# 
Omoide o   tojikometa    heartbreak 


(chorus)
F#m         D          A       E
Arifureta kanashimi arifureta itami to 
F#m          A        E     C#
Koboresou na namida koraete miru hoshi wa 
F#m           D           A         E
Itsumo yori mabushiku kagayaite ochisou da 
        D         E         F#m
Watashi o shizuka ni terasu keredo 


(outro)
  F#m    D         A     E         F#m    D         A     E        F#m
e|-5---------5-4-5------------5-4-5-----------5-4-5-----------------------|
B|-2-----2---2-1-2----0-------2-1-2-------2---2-1-2----0------0----2^-----|
G|------2-2----------2---1---------------2-2----------2---1---1----2^-----|
D|-----4-0----------2-------------------4-0----------2-------------4^-----|
A|----4------------0-------------------4------------0-------2------4^-----|
E|-2-2-------------------0----------2-2-------------------0--------2^-----|

Добавлено: 15.09.2015
Другие материалы по этой песне:
  • Аккорды и текст

Страница создана 15.09.2015
http://primanota.ru/misc-cartoons/love-live-arifureta-kanashimi-no-hate-chords.htm
Привет, Гость.
Предлагаем пройти революционный курс по гитаре.
Подарок от PrimaNota.Ru, забирай!