PrimaNota.ru - самый крупный в мире бесплатный архив песенных текстов, аккордов, табулатур и нот


Misc Cartoons - Kapitan Bomba - таба, видео

Регистрация Запомнить меня
Войти через:  Facebook Google Twitter Vk Yandex Mail.ru

Misc Cartoons - Kapitan Bomba - таба, видео

Печатать
Просмотров: 266
Band/Song: Nunczaki Orientu - Kapitan Bomba: Intro Song

Tabbed by: RhoninX - http://profile.ultimate-guitar.com/RhoninX/
Email: lisekpl(a)o2.pl
Date: 19.12.2009

Tuning: Standard


     S  S S S S S S S S  S S S S S S S    S  S S S S S S S S  S S S S S S S  
E||------------------------------------|------------------------------------|
B||------------------------------------|------------------------------------|
G||------------------------------------|------------------------------------|
D||--5h-6-------------5h-6-------------|--6h-9-------------6h-9-------------|
A||------------------------------------|------------------------------------|
E||-------4-4-4-4-4-4------4-4-4-4-4-4-|-------7-7-7-7-7-7------7-7-7-7-7-7-|


  S S S S S S S S S S S S S S S S    S S S S S S S S S S S S S  S S S  
----------------------------------|-----------------------------------|
----------------------------------|-----------------------------------|
--8-----------8-----------8-------|--9-------8-------9-------8\-------|
----------------------------------|-----------------------------------|
----6-6-6-6-6---6-6-6-6-6---6-6-6-|----6-6-6---6-6-6---6-6-6----6-6-6-|
----------------------------------|-----------------------------------|


  S  S S S S S S  S S S S S S  S S S    S  S S S S S S  S S S S S S  S S S  
-------------------------------------|-------------------------------------|
-------------------------------------|-------------------------------------|
-------------------------------------|-------------------------------------|
--5h-6---------5h-6---------5h-6-----|--6h-9---------6h-9---------6h-9-----|
-------------------------------------|-------------------------------------|
-------4-4-4-4------4-4-4-4------4-4-|-------7-7-7-7------7-7-7-7------7-7-|


  S  S S S S S S  S S S S S S S S S    S  S S S S S S S S S S S S S S S  
------------------------------------|-----------------------------------|
------------------------------------|-----------------------------------|
--6h-7---------8h-9---------8-------|--8h-9-----8-------9-------8-------|
------------------------------------|-----------------------------------|
-------6-6-6-6------6-6-6-6---6-6-6-|-------6-6---6-6-6---6-6-6---6-6-6-|
------------------------------------|-----------------------------------|


    PH                   
    H         H          
-----------------------||
--<>9~-----------------||
-----------------------||
-----------------------||
----6\-----------------||
-----------------------||




Duration Legend
---------------
H - half
S - 16th


Tablature Legend
----------------
PH - pitch harmonic
h - hammer on
\ -  slide into from above or out of downwards
~ - vibrato
Добавлено: 14.04.2012
Другие материалы по этой песне:
  • Аккорды и текст

Страница создана 14.04.2012
http://primanota.ru/misc-cartoons/kapitan-bomba-chords.htm
Привет, Гость.
Предлагаем пройти революционный курс по гитаре.
Подарок от PrimaNota.Ru, забирай!