PrimaNota.ru - самый крупный в мире бесплатный архив песенных текстов, аккордов, табулатур и нот


Misc Cartoons - Kagamine Rin - Chronophobia - таба

Регистрация Запомнить меня
Войти через:  Facebook Google Twitter Vk Yandex Mail.ru

Misc Cartoons - Kagamine Rin - Chronophobia - таба

Печатать
Просмотров: 111
-------------------------------------------------------------------------------
                             Chronophobia - Kagamine Rin
-------------------------------------------------------------------------------
Tabbed by: yonjm
E-mail:
Tuning: Standard

(Intro)

Part1
E|-----------------------------------------------------------------------
B|---------12--11h12p11h12p11----------10-12-10-9-----------------------
G|--9--11----------------------11------------------11h12p11h12p11--9-----
D|---------------------------------11---------------------------------9--
A|-----------------------------------------------------------------------
E|-----------------------------------------------------------------------

part2
E|-----------------------------11------10--9h10p9--------------
B|---------12--11h12p11h12p11------11--------------12--11------
G|--9--11--------------------------------------------------12--
D|-------------------------------------------------------------
A|-------------------------------------------------------------
E|-------------------------------------------------------------



************************************

| /   slide up
| \   slide down
| h   hammer-on
| p   pull-off
| ~   vibrato
| +   harmonic
| x   Mute note
| b   Bend
| pb  Pre-bend
| br  Bend release
| pbr Pre-bend release
| brb Bend release bend

************************************

I modified the first part. Here's the old, less accurate 1st part.

old part 1 
E|-----------------------------------------------------------------------
B|---------12--11h12p11h12p11----------11--9h11p9------------------------
G|--9--11----------------------12------------------11h12p11h12p11--9-----
D|---------------------------------12---------------------------------9--
A|-----------------------------------------------------------------------
E|-----------------------------------------------------------------------
Добавлено: 15.07.2015
Другие материалы по этой песне:
  • Аккорды и текст

Страница создана 15.07.2015
http://primanota.ru/misc-cartoons/kagamine-rin-chronophobia-chords.htm
Привет, Гость.
Предлагаем пройти революционный курс по гитаре.
Подарок от PrimaNota.Ru, забирай!