PrimaNota.ru - самый крупный в мире бесплатный архив песенных текстов, аккордов, табулатур и нот


Misc Cartoons - Hikari Theme - таба, видео

Регистрация Запомнить меня
Войти через:  Facebook Google Twitter Vk Yandex Mail.ru

Misc Cartoons - Hikari Theme - таба, видео

Печатать
Просмотров: 127
E|----------------------------------------------7--|-------------------------18-17-------------------|
B|-17----------------18----------------17----------|-------18-18-17-17-------------18-15-------------|
G|-------17----14----------17----14----------17----|-14----------------14----------------15-14-------|
D|-------------------------------------------------|-------------------------------------------15-12-|
A|-------------------------------------------------|-------------------------------------------------|
E|-------------------------------------------------|-------------------------------------------------|


E|-------------------------------------------------|-17-17-------------------------------------17-18-|
B|-17----------------18----------------17----------|-------------18-18-------------------15-18-------|
G|-------17----14----------17----14----------14----|-------14-14-------14----------14-15-------------|
D|-------------------------------------------------|-------------------------12-15-------------------|
A|-------------------------------------------------|-------------------------------------------------|
E|-------------------------------------------------|-------------------------------------------------|


E|-------------------------------15-12-------------|-------------------------12-8-----------8--10-13-|
B|-------------------------17-11-------11----11-17-|-------------------------------11----11----------|
G|----------------------------------------12-------|----------------------------------10-------------|
D|-------------------------------------------------|-------------------------------------------------|
A|-------------------------------------------------|-------------------------------------------------|
E|-------------------------------------------------|-------------------------------------------------|


E|-------------------------------------------------|-------------------------12-8-----------8--10-13-|
B|-------------------------------------------------|-------------------------------11----11----------|
G|-------------------------------------------------|----------------------------------10-------------|
D|-------------------------------------------------|-------------------------------------------------|
A|-------------------------------------------------|-------------------------------------------------|
E|-------------------------------------------------|-------------------------------------------------|


E|-------------19-15-------------------------------|-------------------------------------------------|
B|-------------------20-15-20-15-------------------|-------------------------------------------------|
G|-------------------------------19-16-19-16-------|-3--------3--------3-----------------------------|
D|-------------------------------------------17-12-|-3--------3--------3-----------------------------|
A|-------------------------------------------------|-1--------1--------1-----------------------------|
E|-------------------------------------------------|-------------------------------------------------|


E|-------------------------------------------------|-------------------------------------------------|
B|-------------------------------------------------|-------------------------------------------------|
G|-------------------------------------------------|-------------------------------------------------|
D|-2-----------------------------------5-----------|-2-----------------------------------------------|
A|-0-----------0--0--0--0--0--0--0--0--3-----------|-0-----------0--0--0--0--0--0--0--0--2-----------|
E|-------------------------------------------------|-------------------------------------0-----------|


E|-------------------------------------------------|-------------------------------------------------|
B|-------------------------------------------------|-------------------------------------------------|
G|-------------------------------------------------|-------------------------------------------------|
D|-------------------------------------3-----------|-2-----------------------------------------------|
A|-3-----------------------------------1-----------|-0-----------0--0--0--0--0--0--0--0--5-----------|
E|-1-----------1--1--1--1--1--1--1--1--------------|-------------------------------------3-----------|


E|-------------------------------------------------|-------------------------------------------------|
B|-------------------------------------------------|-------------------------------------------------|
G|-------------------------------------------------|-------------------------------------------------|
D|----------3--------2-----------------------------|----------5--------2-----------------------------|
A|-0--0--0--1--------0-----------------------------|-0--0--0--3--------0-----------------------------|
E|-------------------------------------------------|-------------------------------------------------|


E|-------------------------------------------------|-------------------------------------------8--10-|
B|-------------------------------------------------|-------------------------------------8--10-------|
G|-------------------------------------------------|-------------------------------7--10-------------|
D|----------3--------2-----2-----------5-----------|-7-----------------------7--10-------------------|
A|-0--0--0--1--------0-----0-----------3-----------|-5-----------------------------------------------|
E|-------------------------------------------------|-------------------------------------------------|


E|-------------------------------------------------|-------------------------------------------------|
B|-------------------------------------------------|-------------------------------------------------|
G|-------------------------------------------------|----------------------------------10-12-10-------|
D|----------3--------2-----2-----------5-----------|-7-----------------------12-10-12----------12-10-|
A|-0--0--0--1--------0-----0-----------3-----------|-5-----------------------------------------------|
E|-------------------------------------------------|-------------------------------------------------|


E|-------------------------------------------------|-------------------------------------------------|
B|-------------------------------------------------|-------------------------------------------------|
G|-------------------------------------------------|-------------------------------------------------|
D|-2-----------------------------------------------|-2-----------------------------------------------|
A|-0--0--0--0--0--0--0--0--0--0--0--0--0--0--0--0--|-0--0--0--0--0--0--0--0--0--0--0--0--0--0--0--0--|
E|-------------------------------------------------|-------------------------------------------------|


E|-------------15----------15----17----------20----|-------------------------18-17-13----------------|
B|-13----13----------13----------------13----------|-------13----17-18-13----------------------------|
G|-------------------------------------------------|----------------------------------17-15-14-------|
D|-------------------------------------------------|-------------------------------------------------|
A|-------------------------------------------------|-------------------------------------------------|
E|-------------------------------------------------|-------------------------------------------------|


E|-------------15----------15----17----------19----|-------------------------15-13-------------------|
B|-12----12----------12----------------12----------|-15-15-------------------------15-13-------------|
G|-------------------------------------------------|-------14-14-17-17-14-14-------------------------|
D|-------------------------------------------------|-------------------------------------17-15-------|
A|-------------------------------------------------|-------------------------------------------17----|
E|-------------------------------------------------|-------------------------------------------------|


E|-------------15----------15----17----------20----|-------------------------18-17-13----------------|
B|-13----13----------13----------------13----------|-------13----17-18-13----------------------------|
G|-------------------------------------------------|----------------------------------17-15-14-------|
D|-------------------------------------------------|-------------------------------------------------|
A|-------------------------------------------------|-------------------------------------------------|
E|-------------------------------------------------|-------------------------------------------------|


E|-------------15----------15----17----------19----|-7--8--20-8--7--8--19-8--17-16-15-14-15-14-13-12-|
B|-12----12----------12----------------12----------|-------------------------------------------------|
G|-------------------------------------------------|-------------------------------------------------|
D|-------------------------------------------------|-------------------------------------------------|
A|-------------------------------------------------|-------------------------------------------------|
E|-------------------------------------------------|-------------------------------------------------|


E|-------------------------------------------------|-------------------------18-17-------------------|
B|-17----------------18----------------17----------|-------18-18-17-17-------------18-15-------------|
G|-------17----14----------17----14----------17----|-14----------------14----------------15-14-------|
D|-------------------------------------------------|-------------------------------------------15-12-|
A|-------------------------------------------------|-------------------------------------------------|
E|-------------------------------------------------|-------------------------------------------------|


E|-------------------------------------------------|-17-17-------------------------------------17-18-|
B|-17----------------18----------------17----------|-------------18-18-------------------15-18-------|
G|-------17----14----------17----14----------14----|-------14-14-------14----------14-15-------------|
D|-------------------------------------------------|-------------------------12-15-------------------|
A|-------------------------------------------------|-------------------------------------------------|
E|-------------------------------------------------|-------------------------------------------------|


E|-------------------------------15-12-------------|-------------------------12-8-----------8--10-13-|
B|-------------------------17-11-------11----11-17-|-------------------------------11----11----------|
G|----------------------------------------12-------|----------------------------------10-------------|
D|-------------------------------------------------|-------------------------------------------------|
A|-------------------------------------------------|-------------------------------------------------|
E|-------------------------------------------------|-------------------------------------------------|


E|-------------------------------------------------|-------------------------12-8-----------8--10-13-|
B|-------------------------------------------------|-------------------------------11----11----------|
G|-------------------------------------------------|----------------------------------10-------------|
D|-------------------------------------------------|-------------------------------------------------|
A|-------------------------------------------------|-------------------------------------------------|
E|-------------------------------------------------|-------------------------------------------------|


E|-------------------------------------------------|-------------------------------------------------|
B|-------------------------------------------------|-------------------------------------------------|
G|-------------------------------------------------|-------------------------------------------------|
D|-2-----------------------------------5-----------|-2-----------------------------------------------|
A|-0-----------0--0--0--0--0--0--0--0--3-----------|-0-----------0--0--0--0--0--0--0--0--2-----------|
E|-------------------------------------------------|-------------------------------------0-----------|


E|-------------------------------------------------|-------------------------------------------------|
B|-------------------------------------------------|-------------------------------------------------|
G|-------------------------------------------------|-------------------------------------------------|
D|-------------------------------------3-----------|-2-----------------------------------------------|
A|-3-----------------------------------1-----------|-0-----------0--0--0--0--0--0--0--0--5-----------|
E|-1-----------1--1--1--1--1--1--1--1--------------|-------------------------------------3-----------|


E|-------------------------------------------------|
B|-------------------------------------------------|
G|-------------------------------------------------|
D|-2-----------------------------------------------|
A|-0-----------------------------------------------|
E|-------------------------------------------------|

Добавлено: 31.10.2013
Другие материалы по этой песне:
  • Аккорды и текст

Страница создана 31.10.2013
http://primanota.ru/misc-cartoons/hikari-theme-chords.htm
Привет, Гость.
Предлагаем пройти революционный курс по гитаре.
Подарок от PrimaNota.Ru, забирай!