PrimaNota.ru - самый крупный в мире бесплатный архив песенных текстов, аккордов, табулатур и нот


Misc Cartoons - Girls Und Panzer - Katyusha - таба, видео

Регистрация Запомнить меня
Войти через:  Facebook Google Twitter Vk Yandex Mail.ru

Misc Cartoons - Girls Und Panzer - Katyusha - таба, видео

Печатать
Просмотров: 159
Уроки эстрадного вокала в Санкт-Петербурге
-------------------------------------------------------------------------------
        Katyusha - Girls und Panzer (Anime version of a Russian folk song)
-------------------------------------------------------------------------------
Tabbed by:Seth Drake
E-mail:sethdrake150@hotmail.com

Tuning:Standard

   Intro                       Second guitar enter
e|---10------9-------7-5-3-2-7~----3------2----------5-3-2-9-7~~~\---------------------|
B|-------12------10--------------------5-----------3-----------------------------------|
G|-------------------------------------------------------------------------------------|
D|-------------------------------------------------------------------------------------|
A|-- Guitar 1 -------------------------------------------------------------------------|
E|-------------------------------------------------------------------------------------|
                               Bm
e|-------------------------------------------------------------------------------------|
B|-------------------------------3---3---3---3---3---3---3---3---3---3---3---3---3---3-|
G|-------------------------------4---4---4---4---4---4---4---4---4---4---4---4---4---4-|
D|-------------------------------------------------------------------------------------|
A|-- Guitar 2 -----------------2-------2-------2-------2-------2-------2-------2-------|
E|---------------------------------2-------2-------2-------2-------2-------2-------2---|
 

   Vers
e|---------------------------------------------------------------------|
B|---------------------------------------------------------------------|
G|---4-----6-7-----4-7-7-6-4-6-------6-----7-9-----7-9-9-7-6-4---------|
D|-------------------------------4-------------------------------------|
A|---------------------------------------------------------------------|
E|---------------------------------------------------------------------|
     Bm                          F#                          Bm
e|---------------------------------------------------------------------|
B|-----3---3---3---3---3---3---3-------------------------------3---3---|
G|-----4---4---4---4---4---4---4---3---3---3---3---3---3---3---4---4---|
D|---------------------------------4---4---4---4---4---4---4-----------|
A|---2-------2-------2-------2-------4-------4-------4-------2---------|
E|-------2-------2-------2-------2-------2-------2-------2-------2-----|


   Ref
e|-------7---5---7-5-3-3-2---2---------3-----2-------------------------|
B|-------------------------5---------------5-------3-5-5-3-2-----------|
G|---4---------------------------4---------------------------4---------|
D|---------------------------------------------------------------------|
A|---------------------------------------------------------------------|
E|---------------------------------------------------------------------|
     Bm      D       Em      Bm      Em      Bm      F#      Bm
e|---------------------------------------------------------------------|
B|-----3---3---7---7---8---8---3---3---8---8---3---3-----------3---3---|
G|-----4---4---7---7---9---9---4---4---9---9---4---4---3---3---4---4---|
D|-----------------------------------------------------4---4-----------|
A|---2-------5-------7-------2-------7-------2-------4-------2---------|
E|-------2-------5-------7-------2-------7-------2-------2-------2-----|


Form:
-Intro
-Vers
-Ref x2
-Vers
-Ref x2
-Vers
-Ref x2
-Intro
-Vers
-Ref x2
-Vers
-Ref x2
-Intro


************************************

| /   slide up
| \   slide down
| h   hammer-on
| p   pull-off
| ~   vibrato
| +   harmonic
| x   Mute note
| b   Bend
| pb  Pre-bend
| br  Bend release
| pbr Pre-bend release
| brb Bend release bend

************************************
Добавлено: 15.07.2015
Другие материалы по этой песне:
  • Аккорды и текст

Страница создана 15.07.2015
http://primanota.ru/misc-cartoons/girls-und-panzer-katyusha-chords.htm
Привет, Гость.
Предлагаем пройти революционный курс по гитаре.
Подарок от PrimaNota.Ru, забирай!