PrimaNota.ru - самый крупный в мире бесплатный архив песенных текстов, аккордов, табулатур и нот


Misc Cartoons - Fun Fun Guitar Dayo - Lucky Star Bgm - таба

Регистрация Запомнить меня
Войти через:  Facebook Google Twitter Vk Yandex Mail.ru

Misc Cartoons - Fun Fun Guitar Dayo - Lucky Star Bgm - таба

Печатать
Просмотров: 197
                           Fun Fun Guitar Dayo

Tabbed By Horandago
Tuning: E standard
I tabbed this all by ear. Please do not steal/copy/use with out permission!!

LEAD GUITAR
                             Q    Q    E  E  E  E
E||-------|-------|-------|------------------------|
B||-------|-------|-------|------------------------|
G||-------|-------|-------|---------------5--7--8--|
D||-------|-------|-------|------------------------|
A||-------|-------|-------|------------------------|
E||-------|-------|-------|------------------------|


  E  E   E  E  E   E  E  E     E  E   E  E  E   E  E  E
----------------------------|----------------------------|
--------10------------------|--------10------------------|
--9--L---L--9--L\--5--7--8--|--9--L------9--L\--5--7--9--|
----------------------------|----------------------------|
----------------------------|----------------------------|
----------------------------|----------------------------|


   E  E  E   E   E   E  E   E      E   E  E   E  E  E  E  E
-------------------------------|-----------------------------|
----------------10--13--L--12--|--11-------------------------|
--10-----7--10-----------------|------10--L\--------5--7--8--|
------8------------------------|-----------------------------|
-------------------------------|-----------------------------|
-------------------------------|-----------------------------|


  E  E   E  E  E   E  E  E     E  E   E  E  E   E  E  E
----------------------------|----------------------------|
--------10------------------|--------10------------------|
--9--L---L--9--L\--5--7--8--|--9--L------9--L\--5--7--9--|
----------------------------|----------------------------|
----------------------------|----------------------------|
----------------------------|----------------------------|


   E  E  E   E   E   E  E   E      E   E  E   E  E  E  E  E
-------------------------------|-----------------------------|
----------------10--13--L--12--|--11-------------------------|
--10-----7--10-----------------|------10--L\-----------------|
------8------------------------|-----------------------------|
-------------------------------|-----------------------------|
-------------------------------|-----------------------------|


   E   E   E   E  E   E  E   E      E   E   E   E  E   E  E   E
--------------------------------|--------------------------------|
--13--13--13--13-----18-----18--|--13--13--13--13-----18-----18--|
--10--10--10--10----------------|--13--13--13--13----------------|
--------------------------------|--------------------------------|
--------------------------------|--------------------------------|
--------------------------------|--------------------------------|


   E   E   E   E  E   E  E   E     E  E  E  E  E  E  E  E
--------------------------------|--------------------------|
--13--13--13--13-----13---------|--------------------------|
--10--10--10--10-----10-----10--|--9--------------5--7--8--|
--------------------------------|--------------------------|
--------------------------------|--------------------------|
--------------------------------|--------------------------|


  E  E   E  E  E   E  E  E     E  E   E  E  E   E  E  E
----------------------------|----------------------------|
--------10------------------|--------10------------------|
--9--L---L--9--L\--5--7--8--|--9--L------9--L\--5--7--9--|
----------------------------|----------------------------|
----------------------------|----------------------------|
----------------------------|----------------------------|


   E  E  E   E   E   E  E   E      E   E  E   E  E  E  E  E
-------------------------------|-----------------------------|
----------------10--13--L--12--|--11-------------------------|
--10-----7--10-----------------|------10--L\--------5--7--8--|
------8------------------------|-----------------------------|
-------------------------------|-----------------------------|
-------------------------------|-----------------------------|


  E  E   E  E  E   E  E  E     E  E   E  E  E   E  E  E
----------------------------|----------------------------|
--------10------------------|--------10------------------|
--9--L---L--9--L\--5--7--8--|--9--L------9--L\--5--7--9--|
----------------------------|----------------------------|
----------------------------|----------------------------|
----------------------------|----------------------------|


   E  E  E   E   E   E  E   E      E   E  E   E  E  E  E  E
-------------------------------|-----------------------------|
----------------10--13--L--12--|--11-------------------------|
--10-----7--10-----------------|------10--L\-----------------|
------8------------------------|-----------------------------|
-------------------------------|-----------------------------|
-------------------------------|-----------------------------|


  E  E  E  E  E  E   E  E     E  E  E  E  E  E   E  E
-----8--8--8--8--L--10--8--|--L--8--8--8--8--L--10--8--|
---------------------------|---------------------------|
---------------------------|---------------------------|
---------------------------|---------------------------|
---------------------------|---------------------------|
---------------------------|---------------------------|


  E  E  E  E  E  E  E  E     E  E  E  E  E  E  E  E
--L--6--6--6--6--5--6--7--|--8--L--L--3--L--L--L--L--|
--------------------------|--------------------------|
--------------------------|--------------------------|
--------------------------|--------------------------|
--------------------------|--------------------------|
--------------------------|--------------------------|


  E  E  E  E  E  E   E  E     E  E  E  E  E  E   E  E
-----8--8--8--8--L--10--8--|--L--8--8--8--8--L--10--8--|
-----6--6--6--6--L---------|-----6--6--6--6--L---6--6--|
---------------------------|---------------------------|
---------------------------|---------------------------|
---------------------------|---------------------------|
---------------------------|---------------------------|


  E  E  E  E  E  E  E   E      E  E  E   E  E  E  E  E
--L--6--6--6--6--5--6--13--|--12--L--L--12--------------|
--L--6--6--6--6--6--6------|----------------------------|
---------------------------|-------------------5--7--8--|
---------------------------|----------------------------|
---------------------------|----------------------------|
---------------------------|----------------------------|


  E  E   E  E  E   E  E  E     E  E   E  E  E   E  E  E
----------------------------|----------------------------|
--------10------------------|--------10------------------|
--9--L---L--9--L\--5--7--8--|--9--L------9--L\--5--7--9--|
----------------------------|----------------------------|
----------------------------|----------------------------|
----------------------------|----------------------------|


   E  E  E   E   E   E  E   E      E   E  E   E  E  E  E  E
-------------------------------|-----------------------------|
----------------10--13--L--12--|--11-------------------------|
--10-----7--10-----------------|------10--L\--------5--7--8--|
------8------------------------|-----------------------------|
-------------------------------|-----------------------------|
-------------------------------|-----------------------------|


  E  E   E  E  E   E  E  E     E  E   E  E  E   E  E  E
----------------------------|----------------------------|
--------10------------------|--------10------------------|
--9--L---L--9--L\--5--7--8--|--9--L------9--L\--5--7--9--|
----------------------------|----------------------------|
----------------------------|----------------------------|
----------------------------|----------------------------|


   E  E  E   E   E   E  E   E      E   E  E   E  E  E  E  E
-------------------------------|-----------------------------|
----------------10--13--L--12--|--11-------------------------|
--10-----7--10-----------------|------10--L\-----------------|
------8------------------------|-----------------------------|
-------------------------------|-----------------------------|
-------------------------------|-----------------------------|


   E   E   E   E  E   E  E   E      E   E   E   E  E   E  E   E
--------------------------------|--------------------------------|
--13--13--13--13-----18-----18--|--13--13--13--13-----18-----18--|
--10--10--10--10----------------|--13--13--13--13----------------|
--------------------------------|--------------------------------|
--------------------------------|--------------------------------|
--------------------------------|--------------------------------|


                                            |-3-|
   E   E   E   E  E   E  E   E     E  E  E  S S S  S S E  S S S S
--------------------------------|---------------------------------|
--13--13--13--13-----13---------|---------------------------------|
--10--10--10--10-----10-----10--|--9--------5-7-9-10-L-9--7-L-6-L-|
--------------------------------|---------------------------------|
--------------------------------|---------------------------------|
--------------------------------|---------------------------------|


   E   E   E   E  E   E  E   E      E   E   E   E  E   E  E   E
--------------------------------|--------------------------------|
--13--13--13--13-----18-----18--|--13--13--13--13-----18-----18--|
--10--10--10--10----------------|--13--13--13--13----------------|
--------------------------------|--------------------------------|
--------------------------------|--------------------------------|
--------------------------------|--------------------------------|


   E   E   E   E  E   E  E   E     E  E  E  E  E  E  E  E
--------------------------------|--------------------------|
--13--13--13--13-----13---------|--------------------------|
--10--10--10--10-----10-----10--|--9-----------------------|
--------------------------------|--------------------------|
--------------------------------|--------------------------|
--------------------------------|--------------------------|


   E   E   E   E  E   E  E   E      E  E  E  E  E  E  E  E
--------------------------------|---------------------------||
--------------------------------|---------------------------||
--------------------------------|---------------------------||
--10--10--10--10-----11-----11--|--10--------3--L-----------||
---8---8---8---8------9------9--|---8-----------------------||
--------------------------------|---------------------------||

RHYTHM GUITAR

     Q    Q    Q    Q       Q    Q    Q    Q       Q    Q    Q    Q
E||----------------------|----------------------|----------------------|
B||----------------------|----------------------|----------------------|
G||----------------------|----------------------|----------------------|
D||----------------------|----------------------|----------------------|
A||-------3---------3----|-------3---------3----|-------3---------3----|
E||--1---------1---------|--1---------1---------|--1---------1---------|


  Q    Q    Q    Q       Q    Q    Q    Q       Q    Q    Q    Q
----------------------|----------------------|----------------------|
----------------------|----------------------|----------------------|
----------------------|----------------------|----------------------|
----------------------|----------------------|----------------------|
-------3--------------|-------3---------3----|-------3---------3----|
--1---------1---------|--1---------1---------|--1---------1---------|


  Q    Q    Q    Q       Q    Q    Q    Q       Q    Q    Q    Q
----------------------|----------------------|----------------------|
----------------------|----------------------|----------------------|
----------------------|----------------------|----------------------|
----------------------|----------------------|----------------------|
-------5---------5----|-------5--------------|-------3---------3----|
--3---------3---------|--3---------3---------|--1---------1---------|


  Q    Q    Q    Q       Q    Q    Q    Q       Q    Q    Q    Q
----------------------|----------------------|----------------------|
----------------------|----------------------|----------------------|
----------------------|----------------------|----------------------|
----------------------|----------------------|----------------------|
-------3---------3----|-------5---------5----|-------5---------5----|
--1---------1---------|--3---------3---------|--3---------3---------|


  E  E  E  E  E  E  E  E     E  E  E  E  E  E  E  E
--------------------------|--------------------------|
--------------------------|--------------------------|
--------------------------|--------------------------|
--5--5--5--5--------------|--6--6--6--6--------------|
--3--3--3--3--------------|--3--3--3--3--------------|
--------------------------|--------------------------|


  E  E  E  E  E  E  E  E     E  E  E  E  E  E  E  E     Q    Q    Q    Q
--------------------------|--------------------------|----------------------|
--------------------------|--------------------------|----------------------|
--------------------------|--------------------------|----------------------|
--5--5--5--5--------------|--------------------------|----------------------|
--3--3--3--3--------------|--3-----------3--L--L--L--|-------3---------3----|
-----------------1-----1--|--------------------------|--1---------1---------|


  Q    Q    Q    Q       Q    Q    Q    Q       Q    Q    Q    Q
----------------------|----------------------|----------------------|
----------------------|----------------------|----------------------|
----------------------|----------------------|----------------------|
----------------------|----------------------|----------------------|
-------3---------3----|-------5---------5----|-------5--------------|
--1---------1---------|--3---------3---------|--3---------3---------|


  Q    Q    Q    Q       Q    Q    Q    Q       Q    Q    Q    Q
----------------------|----------------------|----------------------|
----------------------|----------------------|----------------------|
----------------------|----------------------|----------------------|
----------------------|----------------------|----------------------|
-------3---------3----|-------3---------3----|-------5---------5----|
--1---------1---------|--1---------1---------|--3---------3---------|


  Q    Q    Q    Q       Q     Q    Q     Q       Q    Q    Q    Q
----------------------|------------------------|----------------------|
----------------------|------------------------|----------------------|
----------------------|------------------------|----------------------|
----------------------|------------------------|----------------------|
-------5---------5----|-------10---------10----|-------9---------9----|
--3---------3---------|--8----------8----------|--7---------7---------|


  Q    Q    Q    Q       Q    Q    Q    Q       Q    Q    Q    Q
----------------------|----------------------|----------------------|
----------------------|----------------------|----------------------|
----------------------|----------------------|----------------------|
----------------------|----------------------|----------------------|
-------8---------8----|-------7---------7----|-------7---------7----|
--6---------6---------|--5---------5---------|--5---------5---------|


  Q    Q    Q    Q       Q    Q    Q    Q       E  E  E  E  E  E  E  E
----------------------|----------------------|--------------------------|
----------------------|----------------------|--------------------------|
----------------------|----------------------|--------------------------|
----------------------|----------------------|--------------------------|
-------6---------6----|-------5---------5----|--3--3--3--3--------------|
--4---------4---------|--3---------3---------|--------------------------|


  Q    Q    Q    Q       Q    Q    Q    Q       Q    Q    Q    Q
----------------------|----------------------|----------------------|
----------------------|----------------------|----------------------|
----------------------|----------------------|----------------------|
----------------------|----------------------|----------------------|
-------3---------3----|-------3---------3----|-------5---------5----|
--1---------1---------|--1---------1---------|--3---------3---------|


  Q    Q    Q    Q       Q    Q    Q    Q       Q    Q    Q    Q
----------------------|----------------------|----------------------|
----------------------|----------------------|----------------------|
----------------------|----------------------|----------------------|
----------------------|----------------------|----------------------|
-------5--------------|-------3---------3----|-------3---------3----|
--3---------3---------|--1---------1---------|--1---------1---------|


  Q    Q    Q    Q       Q    Q    Q    Q       E  E  E  E  E  E  E  E
----------------------|----------------------|--------------------------|
----------------------|----------------------|--------------------------|
----------------------|----------------------|--------------------------|
----------------------|----------------------|--5--5--5--5--------------|
-------5---------5----|-------5---------5----|--3--3--3--3--------------|
--3---------3---------|--3---------3---------|--------------------------|


  E  E  E  E  E  E  E  E     E  E  E  E  E  E  E  E
--------------------------|--------------------------|
--------------------------|--------------------------|
--------------------------|--------------------------|
--6--6--6--6--------------|--5--5--5--5--------------|
--3--3--3--3--------------|--3--3--3--3--------------|
--------------------------|-----------------1-----1--|


  E  E  E  E  E  E  E  E     E  E  E  E  E  E  E  E
--------------------------|--------------------------|
--------------------------|--------------------------|
--------------------------|--------------------------|
--------------------------|--5--5--5--5--------------|
--3-----------------------|--3--3--3--3--------------|
--------------------------|--------------------------|


  E  E  E  E  E  E  E  E     E  E  E  E  E  E  E  E
--------------------------|--------------------------|
--------------------------|--------------------------|
--------------------------|--------------------------|
--6--6--6--6--------------|--5--5--5--5--------------|
--3--3--3--3--------------|--3--3--3--3--------------|
--------------------------|-----------------1-----1--|


  E  E  E  E  E  E  E  E      E   E   E   E  E   E  E   E
--------------------------|--------------------------------|
--------------------------|--------------------------------|
--------------------------|--10--10--10--10-----11-----11--|
--------------------------|--------------------------------|
--3-----------3--L--------|--------------------------------|
--------------------------|--------------------------------|


   E  E  E   E  E  E  E  E
----------------------------||
------------18--L-----------||
--10------------------------||
----------------------------||
----------------------------||
----------------------------||

I am a big Lucky Star fan, so why not tab out a BGM. The only other tab on UG was the 
power tab (which i didnt have) so i submitted this. Enjoy

Duration Legend
---------------
W - whole
H - half
Q - quarter
E - 8th
S - 16th
T - 32nd
X - 64th
. - note dotted
|-n-|  - n-tuplets


Tablature Legend
----------------
L - tied note
x - dead note
g - grace note
(n) - ghost note
> - accentuded note
NH - natural harmonic
AH - artificial harmonic
TH - tapped harmonic
SH - semi harmonic
PH - pitch harmonic
h - hammer on
p - pull off
b - bend
br - bendRelease
pb - preBend
pbr - preBendRelease
brb - bendReleaseBend
\n/ - tremolo bar dip
\n - tremolo bar dive
-/n - tremolo bar Release up
/n\ - tremolo bar inverted dip
/n - tremolo bar return
-\n - tremolo bar Release down
S - shift slide
s - legato slide
/ -  slide into from below or out of upwards
\ -  slide into from above or out of downwards
~ - vibrato
W - wide vibrato
tr - trill
TP - tremolo picking
T - tapping
S - slap
P - pop
< - fade in
^ - brush up
v - brush down
Добавлено: 28.03.2012
Другие материалы по этой песне:
  • Аккорды и текст

Страница создана 28.03.2012
http://primanota.ru/misc-cartoons/fun-fun-guitar-dayo-lucky-star-bgm-chords.htm
Привет, Гость.
Предлагаем пройти революционный курс по гитаре.
Подарок от PrimaNota.Ru, забирай!