PrimaNota.ru - самый крупный в мире бесплатный архив песенных текстов, аккордов, табулатур и нот


Misc Cartoons - Fullmetal Alchemist Brotherhood - Lapis Philosophorum - бас-таба

Регистрация Запомнить меня
Войти через:  Facebook Google Twitter Vk Yandex Mail.ru

Misc Cartoons - Fullmetal Alchemist Brotherhood - Lapis Philosophorum - бас-таба

Печатать
Просмотров: 65
FMAB OST - Lapis Philosophorum

Tabbed by: Ashy (XxThreeCheersxX)
E-mail: burdickash@gmail.com

Tuning: Standard

I know this isn't a song that you'd immediately think "i want to be able to play this on bass", but I'm 
planning to post a cover of this song online within the next day or so, and figured I might
as well share the tabs with everyone else, like the other ones I post.

Happy playing! 

G|------------------------------------------------------------------------|
D|------------------------------------------------------------------------|
A|-9----9------7-9---10--7----7---------7----7------6-7---9-6----6--------|
E|------------------------------------------------------------------------|

G|-------------------------------------------------------------------------------------|
D|---9----9------7-9---10-9----7-------------------------------------------------------|
A|--------------------------------------9-10---12-11----11---------------9----9--------|
E|-7------------------------------------------------------------9-10---9---------------|

G|---7-------------6---7-6---------------------------------------------------|
D|---------------9-----------------------10----9-------------7-9-------------|
A|-9------9-------------------9--------9--------------9-10----------7--------|
E|---------------------------------------------------------------------------|

G|---7-------------------------------------------------------------|
D|-9-------------9-11----12-10-------------------------------------|
A|--------9-----------------------10------10-12---10-9----9--------|
E|-----------------------------------------------------------------|

G|----------------------------|
D|----------9-----------------|
A|-9-10---9-------------------|
E|----------------------------|

G|---7-------------------------------------------------------------|
D|-9-------------9-11----12-10-------------------------------------|
A|--------9-----------------------10------10-12---10-9----9--------|
E|-----------------------------------------------------------------|

G|----------------------------|
D|----------9----9------------|
A|-9-10---9-------------------|
E|----------------------------|


| /  slide up
| \  slide down
| h  hammer-on
| p  pull-off
| ~  vibrato
| +  harmonic
| x  Mute note
===============================================================================
Добавлено: 18.02.2016
Другие материалы по этой песне:
  • Аккорды и текст

Страница создана 18.02.2016
http://primanota.ru/misc-cartoons/fullmetal-alchemist-brotherhood-lapis-philosophorum-chords.htm
Привет, Гость.
Предлагаем пройти революционный курс по гитаре.
Подарок от PrimaNota.Ru, забирай!