PrimaNota.ru - самый крупный в мире бесплатный архив песенных текстов, аккордов, табулатур и нот


Misc Cartoons - Fullmetal Alchemist Brotherhood - The Fullmetal Alchemist - бас-таба, видео

Регистрация Запомнить меня
Войти через:  Facebook Google Twitter Vk Yandex Mail.ru

Misc Cartoons - Fullmetal Alchemist Brotherhood - The Fullmetal Alchemist - бас-таба, видео

Печатать
Просмотров: 161
Уроки эстрадного вокала в Санкт-Петербурге
FMAB OST - The Fullmetal Alchemist

Tabbed by: Ashy (XxThreeCheersxX)
E-mail: burdickash@gmail.com

Tuning: Standard

I know this isn't a song that you'd immediately think "i want to be able to play this on bass", but I'm 
planning to post a cover of this song online within the next day or so, and figured I might
as well share the tabs with everyone else, like the other ones I post.

Happy playing! 

G|---------------------------------------------------------|
D|-----------------------7---------------------------------|
A|-5--6--5--8--6--5--5--------5--6--5--8--6--5-------10----|
E|----------------------------------------------8----------|

G|--------------------------------------------------------------|
D|------------------------5----8--7--8--7--10--8--7-------------|
A|----5-----6--5-----5-------------------------------10----9----|
E|-8-----8--------8---------------------------------------------|

G|------------------------------------------------------------|
D|-------------------------10----------------------------8----|
A|-8--9--8--11--9--8--8----------8--9--8--11--9--8--6---------|
E|------------------------------------------------------------|

G|---------------------------------------------------------------------|
D|------------------------8----11--10--11--10--13--11--10--------------|
A|-6--8--6--9--8--6--8-------------------------------------13----12----|
E|---------------------------------------------------------------------|

G|------------------------------------------------------------|
D|------------------------------------------------------------|
A|------------------------------7--8--10--7----8--11----10----|
E|-6--5--6--8----6--9--------8--------------------------------|

G|-----------------------------------------------------------------------|
D|-12---10---9--10--12---10----------------------------------------------|
A|----------------------------13--12--12---10---9--10--12---10-----------|
E|---------------------------------------------------------------13--12--|

G|------------------------------------------------------------------------|
D|------------------------------------------------------------------------|
A|------------------------------------------------------------------------|
E|-12---10---9--10--10---8---7--8--8---7---6--7--6---5---4-------5--------|

G|---------------------------------------------------------|
D|-----------------------7---------------------------------|
A|-5--6--5--8--6--5--5--------5--6--5--8--6--5-------10----|
E|----------------------------------------------8----------|

G|-----------------------------------------------------------------------------------------------------|
D|------------------------5----8--7--8--7--10--8--7----------------------------------------------------|
A|----5-----6--5-----5-------------------------------10----9----10--------10--------10-----------------|
E|-8-----8--------8------------------------------------------------------------------------------------|


| /  slide up
| \  slide down
| h  hammer-on
| p  pull-off
| ~  vibrato
| +  harmonic
| x  Mute note
===============================================================================
Добавлено: 18.02.2016
Другие материалы по этой песне:
  • Аккорды и текст

Страница создана 18.02.2016
http://primanota.ru/misc-cartoons/fullmetal-alchemist-brotherhood-fullmetal-alchemist-chords.htm
Привет, Гость.
Предлагаем пройти революционный курс по гитаре.
Подарок от PrimaNota.Ru, забирай!