PrimaNota.ru - самый крупный в мире бесплатный архив песенных текстов, аккордов, табулатур и нот


Misc Cartoons - Finding Nemo Theme - таба, видео

Регистрация Запомнить меня
Войти через:  Facebook Google Twitter Vk Yandex Mail.ru

Misc Cartoons - Finding Nemo Theme - таба, видео

Печатать
Просмотров: 107
Finding Nemo Theme
I based this tab off of: https://www.youtube.com/watch?v=KmoLIPJUzPI
so watch the vid if you are unsure of timing/fingering.
capo 1 (frets not relative to capo)
e|----------------------------------------------------------------|
B|-------------8----------------10-8------------------------------|
G|-10----10-----------10------10------10----x2--10----10-------10-|
D|-10-10-----10-------10----10------------------10-------8-----10-|
A|-8------------------8-------------------------8---8----------8--|
E|-1------------------1-------------------------1--------------1--|

e|------------------------------------------------------------------|
B|-------------------------------------8----------------------------|
G|-7---10-10-7--------7---10-10---10-------10-------7---10-10-7-----|
D|-10-----------10----10----------------------------10----------10--|
A|-1------------8-----1---------1----1---1----------1-----------8---|
E|------------------------------------------------------------------|

e|-----------------------------------------|
B|-----10-11-10---------10-11-10-----------|
G|-10--------------10-------------10-------|
D|-10--------------10-------------10-------|
A|---------------------------------8-------|
E|-10--------------8---------------1-------|

e|-----------------------------------------------------------|
B|-------------8----------------10-8--------8---1---8---1----|
G|-10----10-----------10------10------10----10--9---10--9----|
D|-10-10-----10-------10----10-----------10-10--10--10--10---|
A|-8------------------8---------------------1---8---1---8----|
E|-1------------------1--------------------------------------|
Добавлено: 15.07.2015
Другие материалы по этой песне:
  • Аккорды и текст

Страница создана 15.07.2015
http://primanota.ru/misc-cartoons/finding-nemo-theme-chords.htm
Привет, Гость.
Предлагаем пройти революционный курс по гитаре.
Подарок от PrimaNota.Ru, забирай!