PrimaNota.ru - самый крупный в мире бесплатный архив песенных текстов, аккордов, табулатур и нот


Misc Cartoons - Fairy Tail - The Rock City Boy - аккорды и текст, видео

Регистрация Запомнить меня
Войти через:  Facebook Google Twitter Vk Yandex Mail.ru

Misc Cartoons - Fairy Tail - The Rock City Boy - аккорды и текст, видео

Печатать
Просмотров: 456
Fairy Tail - The Rock City Boy
Misc Cartoons
Fairy Tail Opening 8
JAMIL - The Rock City Boy

(intro)
e|------------------------------------------------------------------|
B|------------------------------------------------------------------|
G|----4---4-2-----------------------------4---4-2-------------------|
D|-------------2--2----0-2-4-2-0-------------------2--2----0-2-4-2--|
A|--2-----------------------------------2---------------------------|
E|------------------------------------------------------------------|
       Bm       D      E
Chotto yogoreta SUUTSUKEESU wo motte 
  Bm          D      E
Nani mo shirazu ni sora kara orita 
   Bm        D    E
Chizu no mukou, koko ni sanjou 
     Bm         D       E
Yume ni mita akogare no basho
        Bm    D       E
Yea Yea Yea (Yea Yea Yea)
              Bm        D        E 
The Rock City Boy (The Rock City Boy)
        Bm    D       E 
Yea Yea Yea (Yea Yea Yea)
              Bm        D          E 
The Rock City Boy (The Rock City Boy)


(chorus)
        G               A     
Oh baby JANJAN kabe norikoeyou with my guitar 
Bm     D         E
Todoku made oh yeah utaou
G            F# 
Just music sore dake de 
     Bm    D     E
Kimi ni sasageru yo oh yeah

        G                         A
MAJI de kyoutsuuten no hou ga ooi nchau no? with my guitar 
Bm     D      E
Sagashinagara yea utaou, 
G                F#
just love tada sore dake de, 
  Bm   D   E         Bm   D  E
Oikake get free?! My perfect dream!


(interlude) 
e|--------------------------------------------------------------------|
B|--------------------------------------------------------------------|
G|--2s4--2------------------------------2s4--2------------------------|
D|---------4-3--2--2---0-2-4-2-0---------------4-3--2--2---0-2-4-2-0--|
A|--------------------------------------------------------------------|
E|--------------------------------------------------------------------|
Bm  D    E
Yea Yea Yea 
Bm    D       E   
The Rock City Boy (boy boy boy)


(no chord)
Ne teru toki mo!
Oki teru toki mo !
Yume wo mikata ni shiyo yo Yea!


(rap)("yea yea yea! the rock city boy!" in the background)
Bm                             D 
I wanna believe the singing on beat 
E
Most recently is like recess for me
Bm                                     D 
Pretty pretty please, no birds and the bees 
E
But ecstasy with extra cheese
Bm                          D 
Rhyming rhino sounding like bono 
E
All smacked up with a black jack bottle 
Bm                    D 
When I say "ho" you say "hey"
E                           Bm
Nani itteru ka wakaranai yo ne?!
Добавлено: 15.05.2015
Другие материалы по этой песне:
  • Аккорды и текст

Страница создана 15.05.2015
http://primanota.ru/misc-cartoons/fairy-tail-rock-city-boy-chords.htm
Привет, Гость.
Предлагаем пройти революционный курс по гитаре.
Подарок от PrimaNota.Ru, забирай!