PrimaNota.ru - самый крупный в мире бесплатный архив песенных текстов, аккордов, табулатур и нот


Misc Cartoons - Fairy Tail - Main Theme - таба, видео

Регистрация Запомнить меня
Войти через:  Facebook Google Twitter Vk Yandex Mail.ru

Misc Cartoons - Fairy Tail - Main Theme - таба, видео

Печатать
Просмотров: 1393
This is mostly based on http://www.youtube.com/watch?v=dZ4XMgKHIRg
and then a little more ajusted to the actual song.

I hope this is correct and doens't have mistakes anymore ^^

(First tab, btw D:)

Tuning: Standard

h  - Hammer-on
p  - Pull off
/  - Slide up

e ||--0---7---7---5-----3--2--0--2--0---7---10---7----5-----2h3--2--0--0----2--------0---0--7--|
B ||-----------------3-----------------------------8-----3----------------0---3----------------|
G ||-------------------------------------------------------------------0--------2--------0-----|
D ||--------------------0-----------------------------0---------------------0-----0----2-------|
A ||--------------------------3-------------10----------------------3--------------------------|
E ||--0-------3---------------------0------------------------------------------------0---------|

e |--7---5-----3---3--2---0--0--2-----0-----7--10-----7----5----3--3--2--0---0-2-----||
B |---------3-----------------------3-------------------8-----3-------------------3--||
G |----------------------------------------------------------------------------------||
D |------------0------0---------0------------------9-------0-------------------0-----||
A |-----------------------3--------------2-----10------------------------3-----------||
E |--3--------------------------------0----------------------------------------------||

e ||--0-2-0-----------0----0-2-0------------3-2--0-2-0-----------0---3-2-0-2-0---------0---2h3-2--||
B ||--------3-0---0-3---3--------3-0----0-3------------3-0---0-3---3-----------3-0-0-3---3--------||
G ||------------2--------------------2---------------------2--------------------------------------||
D ||---------------------------------------------0-------------------------------0----------------||
A ||-----------------------------------------------------------------3-----3----------------------||
E ||--0---------0---0------3---------0---------------------0--------------------------------------||

e||-0---0-2--2h3-2-0----------7--5--3--3h5--7-5h7p5--3-2--0---0-0-2-------0---0-0-2-2h3-2-0---------7||
B||------------------3-----3----------------------------------0-----3-----------------------3-----3--||
G||-----0----------------0----------------------------------0---------2-------0-----------------0----||
D||---2----------------0---------------0------0-------------------0-----0---2-----------------0------||
A||-------------------------------------------------------3------------------------------------------||
E||-0----------------3----------------------------------------------------0-----------------3--------||

e ||-5--3--3h5--7-5h7p5--3-2--0---0-0-2-------0---0-0-2-2h3-2-0------7h10--7\5--||
B ||------------------------------0-----3-----------------------3-0-------------||
G ||----------------------------0---------2-------0-----------------------------|| x3
D ||-------0------0-------------------0-----0---2-------------------------------||
A ||--------------------------3-------------------------------------------------||
E ||------------------------------------------0-----------------3---------------||

e ||-5--3--3h5--7-5h7p5--3-2--0---0-0-2------||
B ||------------------------------0-----3----||
G ||----------------------------0---------2--||
D ||-------0------0-------------------0------||
A ||--------------------------3--------------||

e ||--0-2-0-----------0----0-2-0------------3-2--0-2-0-----------0---3-2-0-2-0---------0---2h3-2--||
B ||--------3-0---0-3---3--------3-0----0-3------------3-0---0-3---3-----------3-0-0-3---3--------||
G ||------------2--------------------2---------------------2--------------------------------------||x2
D ||---------------------------------------------0-------------------------------0----------------||
A ||-----------------------------------------------------------------3-----3----------------------||
E ||--0---------0---0------3---------0---------------------0--------------------------------------||
Добавлено: 14.08.2013
Другие материалы по этой песне:
  • Аккорды и текст

Страница создана 14.08.2013
http://primanota.ru/misc-cartoons/fairy-tail-main-theme-chords.htm
Привет, Гость.
Предлагаем пройти революционный курс по гитаре.
Подарок от PrimaNota.Ru, забирай!