PrimaNota.ru - самый крупный в мире бесплатный архив песенных текстов, аккордов, табулатур и нот


Misc Cartoons - Egao No Mahou Theme - таба, видео

Регистрация Запомнить меня
Войти через:  Facebook Google Twitter Vk Yandex Mail.ru

Misc Cartoons - Egao No Mahou Theme - таба, видео

Печатать
Просмотров: 107
EGAO NO MAHOU GUITAR COVER: 
http://www.youtube.com/watch?v=eqSWczSd0_0

Intro:

e|--------------------------------------------------------|
B|--------------------10------------13--13----11--10------|
G|------12--10------------12----10--------------------10--|
D|--10------------10--------------------------------------|
A|--------------------------------------------------------|
E|--------------------------------------------------------|

e|-----------------------------------------------------------------|
B|-----------------10--11--10--11--13--------10--------------------|
G|--12--9--10--12----------------------10--------12--10--9--9--10--|
D|-----------------------------------------------------------------|
A|-----------------------------------------------------------------|
E|-----------------------------------------------------------------|

e|----------------------------------------------------|-------------------------------------------|
B|----------------------------------------------------|-------------------------------------------|
G|--14--14--14--14--14--14---12--12--12---10--10--10--|--5--5---9--9--9---7--7--7--7--7--7--7--7--|
D|----------------------------------------------------|-------------------------------------------|
A|--12--12--12--12--12--12---10--10--10---8---8---8---|--3--3---7--7--7---5--5--5--5--5--5--5--5--|
E|----------------------------------------------------|-------------------------------------------|

e|----------------------------------------------------|-----------------------------------------------|
B|----------------------------------------------------|-----------------------------------------------|
G|--14--14--14--14--14--14---17--17--17---14--14--14--|--6--6---12--12--12---10--10---14--14--14--14--|
D|----------------------------------------------------|-----------------------------------------------|
A|--12--12--12--12--12--12---15--15--15---12--12--12--|--4--4---10--10--10---8---8----12--12--12--12--|
E|----------------------------------------------------|-----------------------------------------------|


Verse/Estrofa:

GUITAR 1:

e|------------------------------|------------------------------|
B|------------------------------|------------------------------|
G|--10--10----10--10----10--10--|--10--10----10--10----10--10--|
D|--10--10----10--10----10--10--|--10--10----10--10----10--10--|
A|--8---8-----8---8-----8---8---|--10--10----10--10----10--10--|
E|------------------------------|--8---8-----8---8-----8---8---|

GUITAR 2:

e|--------------------------|-------------------------------------------|
B|--------------------------|----------------------------10-------------|
G|--12--12--12--12--10------|--10--12--10--12--10--12--------10--9------|
D|----------------------12--|---------------------------------------10--|
A|--------------------------|-------------------------------------------|
E|--------------------------|-------------------------------------------|

GUITAR 1:

e|------------------------------|------------------------|
B|------------------------------|--6--6----6--6----6--6--|
G|--10--10----10--10----10--10--|--5--5----5--5----5--5--|
D|--10--10----10--10----10--10--|------------------------|
A|------------------------------|------------------------|
E|--10--10----10--10----10--10--|--6--6----6--6----6--6--|

GUITAR 2:

e|----------------------------------|
B|----------------------------------|
G|--12--12--12--12--10-------9--10--|
D|----------------------12----------|
A|----------------------------------|
E|----------------------------------|

GUITAR 1:

e|------------------------------|------------------------------|
B|------------------------------|------------------------------|
G|--10--10----10--10----10--10--|--10--10----10--10----10--10--|
D|--10--10----10--10----10--10--|--10--10----10--10----10--10--|
A|--8---8-----8---8-----8---8---|--10--10----10--10----10--10--|
E|------------------------------|--8---8-----8---8-----8---8---|

GUITAR 2:

e|--------------------------|--------------------------------------------|
B|--------------------------|----------------------------10--11--10------|
G|--12--12--12--12--10------|--10--12--10--12--10--12----------------10--|
D|----------------------12--|--------------------------------------------|
A|--------------------------|--------------------------------------------|
E|--------------------------|--------------------------------------------|

GUITAR 1:

e|------------------------------|------------------------|
B|------------------------------|--6--6----6--6----6--6--|
G|--10--10----10--10----10--10--|--5--5----5--5----5--5--|
D|--10--10----10--10----10--10--|------------------------|
A|------------------------------|------------------------|
E|--10--10----10--10----10--10--|--6--6----6--6----6--6--|

GUITAR 2:

e|----------------------------------|------|
B|----------------------------------|------|
G|--12--12--12--12--10-------9--10--|--12--|
D|----------------------12----------|------|
A|----------------------------------|------|
E|----------------------------------|------|


Pre-Chorus/Pre-Estribillo:

GUITAR 1:

e|----------13-----------12---------8---------8--|
B|------15-----------11----------6---------6-----|
G|--14-----------12-----------7------------------|
D|--------------------------------------7--------|
A|-----------------------------------------------|
E|-----------------------------------------------|

GUITAR 2:

e|----------------------------------------------------|
B|----------------------------------------------------|
G|--10--------------9---9--10--12--9--10------10--10--|
D|------10--10--12------------------------10----------|
A|----------------------------------------------------|
E|----------------------------------------------------|

GUITAR 1:

e|-------------------------------------------------------|
B|-------------------------------------------------------|
G|-------------------------------------------------------|
D|--(5)-x--x--x---x--x--x--x---(7)-x--x--x---x--x--x--x--|
A|--(5)-x--x--x---x--x--x--x---(7)-x--x--x---x--x--x--x--|
E|--(3)-x--x--x---x--x--x--x---(5)-x--x--x---x--x--x--x--|

GUITAR 2:

e|-----------------------------|
B|-----------------------------|
G|--10------9--10--12-------9--|
D|------12--------------12-----|
A|-----------------------------|
E|-----------------------------|

GUITAR 1:

e|--------------------------------------------------------|------|
B|--------------------------------------------------------|------|
G|--------------------------------------------------------|------|
D|--(8)-x--x--x---x--x--x--x---(10)-x--x--x---x--x--x--x--|--10--|
A|--(8)-x--x--x---x--x--x--x---(10)-x--x--x---x--x--x--x--|--10--|
E|--(6)-x--x--x---x--x--x--x---(8)--x--x--x---x--x--x--x--|--8---|

GUITAR 2:

e|------------------------------|
B|----------10--11--10----------|
G|--10--12--------------12--12--|
D|------------------------------|
A|------------------------------|
E|------------------------------|


Chorus/Estribillo:

GUITAR 1:

e|-----------------------------|
B|-----------------------------|
G|---------5----6----5---------|
D|--3------5----7----7------8--|
A|--3------3----4----7------8--|
E|--1-----------------------6--|

GUITAR 2:

e|--------------------------------------------------------|
B|--------------------10------------13--13----11--10------|
G|------12--10------------12----10--------------------10--|
D|--10------------10--------------------------------------|
A|--------------------------------------------------------|
E|--------------------------------------------------------|

GUITAR 1:

e|--------------------------|
B|--------------------------|
G|---------7-------------5--|
D|--7------7------5------5--|
A|--7------5------5------3--|
E|--5-------------3---------|

GUITAR 2:

e|----------------------------------------------------|
B|--------10----------------------------------13------|
G|--9--9------9--10--9------------10------10------12--|
D|----------------------12----12------12--------------|
A|----------------------------------------------------|
E|----------------------------------------------------|

GUITAR 1:

e|-----------------------------|
B|-----------------------------|
G|---------5----6----5---------|
D|--3------5----7----7------8--|
A|--3------3----4----7------8--|
E|--1-----------------------6--|

GUITAR 2:

e|--------------------------------------------10----------|
B|--------------------10------------13--13--------10--11--|
G|------12--10------------12----10------------------------|
D|--10------------10--------------------------------------|
A|--------------------------------------------------------|
E|--------------------------------------------------------|

GUITAR 1:

e|--------------------------|
B|--------------------------|
G|---------7-------------5--|
D|--7------7------5------5--|
A|--7------5------5------3--|
E|--5-------------3---------|

GUITAR 2:

e|-----------------------------------------------------------------|
B|-----------------10--11--10--11--13--------10--------------------|
G|--12--9--10--12----------------------10--------12--10--9--9--10--|
D|-----------------------------------------------------------------|
A|-----------------------------------------------------------------|
E|-----------------------------------------------------------------|


Outro:

e|----------------------------------------------------|
B|----------------------------------------------------|
G|--14--14--14--14--14--14---12--12--12---10--10--10--|
D|----------------------------------------------------|
A|--12--12--12--12--12--12---10--10--10---8---8---8---|
E|----------------------------------------------------|

e|-------------------------------------------|------|
B|-------------------------------------------|------|
G|--5--5---9--9--9---7--7--7--7--7--7--7--7--|--14--|
D|-------------------------------------------|------|
A|--3--3---7--7--7---5--5--5--5--5--5--5--5--|--12--|
E|-------------------------------------------|------|

Tabs by Fefe - Tron544
Добавлено: 10.07.2013
Другие материалы по этой песне:
  • Аккорды и текст

Страница создана 10.07.2013
http://primanota.ru/misc-cartoons/egao-no-mahou-theme-chords.htm
Привет, Гость.
Предлагаем пройти революционный курс по гитаре.
Подарок от PrimaNota.Ru, забирай!