PrimaNota.ru - самый крупный в мире бесплатный архив песенных текстов, аккордов, табулатур и нот


Misc Cartoons - China Illinois - Boy The Man Got Lots - аккорды и текст, видео

Регистрация Запомнить меня
Войти через:  Facebook Google Twitter Vk Yandex Mail.ru

Misc Cartoons - China Illinois - Boy The Man Got Lots - аккорды и текст, видео

Печатать
Просмотров: 122
China Illinois - Boy The Man Got Lots
Misc Cartoons
This song is from Ep.2 Se.2 of China Illinois "Is College Worth it?"

If anyone knows who wrote the song lemme know so I can credit them.

This song is pretty simple, consisting of only three chords: 

     Eb        Bb        Ab
e|----6--------6---------4--|
B|----8--------6---------4--|  
G|----8--------7---------5--|
D|----8--------8---------6--|
A|----6--------8---------6--|
E|----6--------6---------4--|

Also this song has a repetitive fingering which is really simple.

INTRO:
e|-11---8-6-------11---8-6--------|| After this immediately start playing Eb   
B|----------8-6-8----------8-6-8--||
G|--------------------------------||
D|--------------------------------||
A|--------------------------------||
E|--------------------------------||

Chorus:
  Eb
  we got nothing, but, boy, the man  he sure got a lot ♪

  go to get a job but you can eat dookie ♪
  Bb
  there ain't a spot ♪
  Eb
  if you need a penny, you can bet he got plenty ♪
  Ab
  when you're sitting sucking butt and wishing you could have any ♪
  Eb                         Bb               Eb
  yeah, we got nothing, but, boy, the man got lots ♪

e|-11---8-6--------||\  
B|----------8-6-8--|| \
G|-----------------||  | x3
D|-----------------||  |
A|-----------------|| /
E|-----------------||/

  Eb
  we got nothing, but, boy, the man  he sure got a lot ♪

  go to get a job but you can eat dookie ♪
  Bb
  there ain't a spot ♪
  Eb
  if you need a penny, you can bet he got plenty ♪
  Ab
  when you're sitting sucking butt and wishing you could have any ♪
  Eb                         Bb               Eb
  yeah, we got nothing, but, boy, the man got lots ♪

e|-11---8-6--------||\  
B|----------8-6-8--|| \
G|-----------------||  | x3
D|-----------------||  |
A|-----------------|| /
E|-----------------||/

Here is the video on Youtube for strumming and listening reference:

https://www.youtube.com/watch?v=POaDUsPfQJE 

Добавлено: 15.09.2015
Другие материалы по этой песне:
  • Аккорды и текст

Страница создана 15.09.2015
http://primanota.ru/misc-cartoons/china-illinois-boy-man-got-lots-chords.htm
Привет, Гость.
Предлагаем пройти революционный курс по гитаре.
Подарок от PrimaNota.Ru, забирай!