PrimaNota.ru - самый крупный в мире бесплатный архив песенных текстов, аккордов, табулатур и нот


Miracle Of 86 - Sunday School - аккорды и текст, видео

Регистрация Запомнить меня
Войти через:  Facebook Google Twitter Vk Yandex Mail.ru

Miracle Of 86 - Sunday School - аккорды и текст, видео

Печатать
Просмотров: 97
Уроки эстрадного вокала в Санкт-Петербурге
Sunday School
Miracle Of 86
-------------------------------------------------------------------------------
                             Sunday School - Miracle of 86
-------------------------------------------------------------------------------
tabbed by:nick stola

solo near the end
e|----------------------------------------99999999-9-9--9--6666444466696-|
B|------------------------------6---------99999999-9-11-9--6666666666666-|
G|-8~-6~-6\333-3\1-1---3/5-6-6-8--88p-68---------------------------------|
D|-------------------3---------------------------------------------------|
A|-----------------------------------------------------------------------|
E|-----------------------------------------------------------------------|

e|------------------------------------------|
B|------------------------------------------|
G|-33333-66666-6/88-6~----------------------|
D|------------------------------------------|
A|------------------------------------------|
E|------------------------------------------|




C#                     F#
there's a sunday school four blocks away from you,
         Bbm   F#    C#
and it's all we ever do
C#                         F#
 skip rocks across the lawn  to sidestep what we've become
        Bbm    F#         C#
and the stupid things we've done.

C#                               F#
but there's a stained-glass scene  of the nativity
        Bbm      F#  C#
looking down on everyone:
C#                         F
 eyes wide and cauterized, smoke-screened and burglarized
        Bbm           F#      Ab
burning holes through you and me.

         F#
if we're never gonna be this
Bbm                       Ab
innocent again, then why pretend?

Bbm         F#                  C#      Ab         Bbm    F#    C#
i'm through digging through the words i caught by accident from you
              Bbm        F#
cuz if there's something left to lose
            C#       Ab
then there's nothing left to prove
       Bbm                F#
to the church doors, the chapel  steps
        C#
and the sunday schools.


Solo-(same chords over it)


C#                   F#
there's a part of you pinpricked and painted blue,
       Bbm       F#      C#
bullet-holed and broken through,
C#                       F#      
sunburned by window glass,covered up by all that's passed,
Bbm             F#        C#
beaten down and shuttered fast.
Bbm             F#        C#
beaten down and shuttered fast.

Bbm         F#                  C#      Ab         Bbm    F#    C#
i'm through digging through the words i caught by accident from you,
              Bbm        F#
cuz if there's something left to lose
            C#       Ab
then there's nothing left to prove
       Bbm                F#
to the church doors, the chapel  steps
        C#
and the sunday schools.
   Bbm     F#     C#
to anyone, to me, to you.
   Bbm     F#     C#
to anyone, to me, to you.


C#                     F#
there's a sunday school four blocks away from you,
         Bbm   F#    C#
and it's all we ever do 


Добавлено: 21.03.2012
Вам также может быть интересно:
Другие материалы по этой песне:
  • Аккорды и текст

Страница создана 21.03.2012
http://primanota.ru/miracle-of-86/sunday-school-chords.htm
Привет, Гость.
Предлагаем пройти революционный курс по гитаре.
Подарок от PrimaNota.Ru, забирай!