PrimaNota.ru - самый крупный в мире бесплатный архив песенных текстов, аккордов, табулатур и нот


Miracle Legion - Even Better - таба, видео

Регистрация Запомнить меня
Войти через:  Facebook Google Twitter Vk Yandex Mail.ru

Miracle Legion - Even Better - таба, видео

Печатать
Просмотров: 51
------------------------------------------------------------------------------- 

                         Even Better - Miracle Legion

-------------------------------------------------------------------------------
Album: Me and Mr Ray
Tabbed by: Estuary
Email: lreaper3@yahoo.com

Tuning: Standard

Intro:
e|-----------------------------|
B|-----------------------------|
G|-----------------------------|
D|----0------------3p2---------|
A|--3---3-0--------------------|
E|----------3-1-1-----1/3-3-3--|

Main Riff:
    C               G (d ud u)
e|--0--0-1-0--------3------|
B|--1--------3-1-3--0------|
G|--0---------------0-(x4)-|
D|--2---------------0------|
A|--3---------------2------|
E|------------------3------|

Build Up to Chorus: (d d ud)
    F  G  G G
e|--1--3--3-3--|
B|--1--0--0-0--|
G|--2--0--0-0--|
D|--3--0--0-0--|
A|--3--2--2-2--|
E|--1--3--3-3--|

(No guitar in the chorus)

Bridge/End:
e|----------------------------------------------|
B|----------------------------------------------|
G|----------------------------------------------|
D|----0------------3p2-----------2---2---2---2--|
A|--3---3--0-----------------3-3---3---3---3----|
E|-----------3-1-1-----1/3-3--------------------|

Electrified Rythm: (1:31 - 1:42)
e|--1-0---------1---------1-0---1-0---------1-0----------|
B|------3-1-3-1---0-3-1-3-----1-----3-1-3-1-----3-1-3-1--|
G|-------------------------------------------------------|
D|-------------------------------------------------------|
A|-------------------------------------------------------|
E|-------------------------------------------------------|

End on the song on a C.
Добавлено: 21.04.2016
Вам также может быть интересно:
Другие материалы по этой песне:
  • Аккорды и текст

Страница создана 21.04.2016
http://primanota.ru/miracle-legion/even-better-chords.htm
Привет, Гость.
Предлагаем пройти революционный курс по гитаре.
Подарок от PrimaNota.Ru, забирай!