PrimaNota.ru - самый крупный в мире бесплатный архив песенных текстов, аккордов, табулатур и нот


Miracle Legion - Butterflies - таба, видео

Регистрация Запомнить меня
Войти через:  Facebook Google Twitter Vk Yandex Mail.ru

Miracle Legion - Butterflies - таба, видео

Печатать
Просмотров: 105
-------------------------------------------------------------------------------
                            Butterflies-Miracle Legion
-------------------------------------------------------------------------------
Tabbed by: renmo92
Email:rmorales_777@hotmail.com

Tuning: Standard

 Main Riff
e|-----0-0-------------0-0----------------------------------------|
B|-----5-5-----0-------5-5------0--------------0------------------|
G|--6-------6-------6--------6---------6-7-----4-------3-3---1-1--|
D|--7-------7-------7--------7---------7-7-----0-------4-4---2-2--|
A|--7-------7-------7--------7---------7-7-----5-------4-4---2-2--|
E|----------------------------------------------------------------|

e|-----0-0-------------0-0----------------------------------------|
B|-----5-5-----0-------5-5------0--------------0------------------|
G|--6-------6-------6--------6---------6-7-----4-------3-3---1-1--|
D|--7-------7-------7--------7---------7-7-----0-------4-4---2-2--|
A|--7-------7-------7--------7---------7-7-----5-------4-4---2-2--|
E|----------------------------------------------------------------|


Chorus
Chords: E                        B                              A
e|--7--7---7-7----7--7---7-7----5---5--5----5-----5---5---5--|
B|--9--9---9-9----7--7---7-7----5---5--5----5-----5---5---5--|
G|--9--9---9-9----8--8---8-8----6---6--6----6-----6---6---6--|
D|--9--9---9-9----9--9---9-9----7---7--7----7-----7---7---7--|
A|--7--7---7-7----9--9---9-9----7---7--7----7-----7---7---7--|
E|----------------7--7---7-7----5---5--5----5-----5---5---5--|

Repeat these chords for the rest of the chorus part


Riff 2                 2:07-2:20
e|------------------------------------------------------|
B|------------------------------------------------------|
G|------------------------------------------------------|
D|---5-~-~-~-~-~--------7--5------5-~-~-~-~-~-----7--5--|
A|---5-~-~-~-~-~--------7--5------5-~-~-~-~-~-----7--5--|
E|---3-~-~-~-~-~--------5--3------3-~-~-~-~-~-----5--3--|


After Riff 2           2:21-2:34             Play this twice
e|-----0-0-------------------------0-0------------------|
B|-----5-5-----0-~-~-~-~-~---------5-5-----0-~-~-~-~-~--|
G|--6-------6-------------------6-------6---------------|
D|--7-------7-------------------7-------7---------------|
A|--7-------7-------------------7-------7---------------|
E|------------------------------------------------------|
This is also played in the intro before the Main Riff.


I'll be posting more Miracle Legion tabs.
Hope it helps.

===============================================================
Добавлено: 21.03.2012
Другие материалы по этой песне:
  • Аккорды и текст

Страница создана 21.03.2012
http://primanota.ru/miracle-legion/butterflies-chords.htm
Привет, Гость.
Предлагаем пройти революционный курс по гитаре.
Подарок от PrimaNota.Ru, забирай!