PrimaNota.ru - самый крупный в мире бесплатный архив песенных текстов, аккордов, табулатур и нот


Miracle Legion - And Then - таба, видео

Регистрация Запомнить меня
Войти через:  Facebook Google Twitter Vk Yandex Mail.ru

Miracle Legion - And Then - таба, видео

Печатать
Просмотров: 42
-------------------------------------------------------------------------------

                           And Then? - Miracle Legion

-------------------------------------------------------------------------------
Album: Me and Mr. Ray
Tabbed By: Estuary
Email: lreaper3@yahoo.com

Tuning: Standard

Verse:
|-------------------------------------------------------------------|
|---0-----0-----0---0-----0-----0-----0-----0-----0---0-----0-----0-|
|-----0-----0---------0-----0-----0-----0-----0---------0-----0-----|
|-5-----5-----5---7-----5-----5-----3-----3-----3---3-----3-----3---|
|-------------------------------------------------------------------|
|-------------------------------------------------------------------|

Chorus:
D C
|-------------------------------|
|--------3--------0-------3/5\3-|
|-------------2---------2-2-----|
|-0----0--------0-------0-0-----|
|------------------3------------|
|-------------------------------|

End song on G


Like a bluebird
Into the lion's den, into the lion's den
I learned a new word
Words that will never end, words that will never end

And then (and then)
Is this the end? (is this the end?)
Now I trust in my new friend

Turn the tables
See through through the looking glass, see through
Through the looking glass
Seven gables
When will this ever pass?
When will this ever pass?

And then (and then)
Is this the end? (is this the end?)
Now I trust in my new friend

Like a bluebird
Into the lion's den, into the lion's den
I learned a new word
Words that will never end, words that could 

And then (and then)
Is this the end? (is this the end?)
Now I trust in my new friend

And then (and then)
Is this the end? (is this the end?)
Now I trust in my new friend
Добавлено: 21.04.2016
Другие материалы по этой песне:
  • Аккорды и текст

Страница создана 21.04.2016
http://primanota.ru/miracle-legion/and-then-chords.htm
Привет, Гость.
Предлагаем пройти революционный курс по гитаре.
Подарок от PrimaNota.Ru, забирай!