PrimaNota.ru - самый крупный в мире бесплатный архив песенных текстов, аккордов, табулатур и нот


Minutemen - Shit From An Old Notebook - бас-таба, видео

Регистрация Запомнить меня
Войти через:  Facebook Google Twitter Vk Yandex Mail.ru

Minutemen - Shit From An Old Notebook - бас-таба, видео

Печатать
Просмотров: 68
Artist - The Minutemen

Song - Shit from an Old Notebook

Tabbed By :Rufiodies

e-mail: Rufiodies@gmail.com

Tuning: Standard

Picking has a "slappy" tone

Intro/Verse
Something like this, I can't tell if its hammer-ons on the 5h7777 or not
G|--------------------7h9------|
D|----------5h7--7h9-----------| 
A|-5h7777----------------------|
E|-----------------------------|

Or 

G|---------------7h9-----------|
D|--------5h7--9---------------|
A|-57777-----------------------|
E|-----------------------------|

That part at the end, the 9 on the D then the 7h9 on the G, 
it might just be him hitting the 9 on the G twice

So maybe this
G|-------------9-9-------------|
D|--------5h7------------------|
A|-57777-----------------------|
E|-----------------------------|

or

G|-------------9-7h9-----------|
D|--------5h7------------------|
A|-57777-----------------------|
E|-----------------------------|

Next part
G|---------------------------|
D|-5-5---5-5-----------------|
A|-----7-----7--5-5-7--5-5-7-|
E|---------------------------|

Then the same thing but the last note is a 7 on the D before he switches up
G|---------------------------|
D|-5-5---5-5---------------7-|
A|-----7-----7--5-5-7--5-5---|
E|---------------------------|


Then
G|-----------------------------|
D|--5-5-7--5-5-7------7------7-|
A|----------------5-5----5-5---|
E|-----------------------------|

Last part
Hold the last note, the 3 on the A

G|-------------------------------|
D|--5-5-7--5-5-7------7----------|
A|----------------5-5----5-5-7-3-|
E|-------------------------------|

Then he does a little rapid picking into a slide with that C on the A string
My ear isn't good enough to figure it out exactly but its all attitude anyways so do whatever!

LET YOURSELF BE HEARD!


| /  slide up
| \  slide down
| h  hammer-on
| p  pull-off
| ~  vibrato
| +  harmonic
| x  Mute note
Добавлено: 11.05.2016
Другие материалы по этой песне:
  • Аккорды и текст

Страница создана 11.05.2016
http://primanota.ru/minutemen/shit-from-an-old-notebook-chords.htm
Привет, Гость.
Предлагаем пройти революционный курс по гитаре.
Подарок от PrimaNota.Ru, забирай!