PrimaNota.ru - самый крупный в мире бесплатный архив песенных текстов, аккордов, табулатур и нот


Minus The Bear - Pachuca Sunrise - текст песни, таба, видео

Регистрация Запомнить меня
Войти через:  Facebook Google Twitter Vk Yandex Mail.ru

Minus The Bear - Pachuca Sunrise - текст песни, таба, видео

Печатать
Просмотров: 148
-----------------------------------------------------------------------------
			     PACHUCA SUNRISE – Minus the Bear
-----------------------------------------------------------------------------
Tabbed by: Morgan Ence
Email: m_ence@cox.net

Tuning: Drop D

This is for Dave's part only.

This is what you play but to get the echo sound you need a delay pedal.  
If you don't have one, you can double up the * notes to mimic the sound.


INTRO:

Hammer down the notes WITHOUT the * 
Use your strumming hand to tap the notes WITH the * 
I use my index finger like a bar chord to hammer down on the DAD strings and
hammer onto the G string with my middle finger.  
I recommend using your middle finger on your strumming hand to tap the * notes.
**delay on**

e|------------------------------------------------------------|
B|------*19--*19-------*17--*17-------*15--*15--*15-*15-*14---|
G|--h5-------------h7-------------h9--------------------------|
D|-3--------------5--------------7----------------------------|
A|-3--------------5--------------7----------------------------|
D|-3--------------5--------------7----------------------------|

e|------------------------------------------------------------|
B|------*19--*19-------*17--*17-------*15--*15--*15-*15-*17---|
G|--h5-------------h7-------------h9--------------------------|
D|-3--------------5--------------7----------------------------|
A|-3--------------5--------------7----------------------------|
D|-3--------------5--------------7----------------------------|

X2

then

VERSE:

The verse sounds good with a lighter delay or reverb.  
Play this the same way as the intro.

e|----------------------------------------|
B|----------------------------------------|
G|----*11-----------9s11----------7~~~----|
D|-9--*11--------7--------------5---------|
A|-9-------------7--------------5---------|
D|-9-------------7--------------5---------|

e|----------------------------------------|
B|----------------------------------------|
G|----*7------------9s7-----------11~~~---|
D|-5--*7---------7--------------9---------|
A|-5-------------7--------------9---------|
D|-5-------------7--------------9---------|

X4

then


PRE-CHORUS:

Use a pick on the pre-chorus and chorus.  There is a light overdrive.
(The part in brackets are actually played by Jake in this part)

|-----------------------| 
|-14-15-17-17-----------|
|-----------------------| 
|-11-12-14-14-(7-9-7-9)-|
|-------------(7-9-7-9)-| 
|-------------(7-9-7-9)-|

CHORUS:

|-------------------15-14-|    |-------------------| 
|-14-15-17-17-12-12-------|    |-14-15-17-17-------|
|-------------------12-11-|    |-------------16-16-|
|-11-12-14-14-9--9--------| x3 |-11-12-14-14-------| x1
|-------------------------|    |-------------14-14-|
|-------------------------|    |-------------------|

Then back to the verse

VERSE:

The verse sounds good with a lighter delay or reverb.  
Play this the same way as the intro.

e|----------------------------------------|
B|----------------------------------------|
G|----*11-----------9s11----------7~~~----|
D|-9--*11--------7--------------5---------|
A|-9-------------7--------------5---------|
D|-9-------------7--------------5---------|

e|----------------------------------------|
B|----------------------------------------|
G|----*7------------9s7-----------11~~~---|
D|-5--*7---------7--------------9---------|
A|-5-------------7--------------9---------|
D|-5-------------7--------------9---------|

X4

This pre-chorus is the same as the regular chorus

PRE-CHORUS:

|--------------------15-14-|    
|-14-15-17-17-12-12--------|    
|--------------------12-11-|    
|-11-12-14-14-9--9---------|  
|--------------------------| x1   
|--------------------------|    

CHORUS:
	
|-------------------15-14-|   
|-14-15-17-17-12-12-------|    
|-------------------12-11-|    
|-11-12-14-14-9--9--------| x7
|-------------------------|   
|-------------------------|    

Then to the interlude/bridge/verse thing

INTERLUDE:

Play this just like the intro except hammer on the whole chord with your non-strumming hand. 
(Instead of hammering DAD strings then the G string, hammer on DADG all at once.)
**delay on**

e|------------------------------------------------------------|
B|------*19--*19-------*17--*17-------*15--*15--*15-*15-*14---|
G|-5--------------7--------------9----------------------------|
D|-5--------------7--------------9----------------------------|
A|-3--------------5--------------7----------------------------|
D|-3--------------5--------------7----------------------------|

e|------------------------------------------------------------|
B|------*19--*19-------*17--*17-------*15--*15--*15-*15-*17---|
G|-5--------------7--------------9----------------------------|
D|-5--------------7--------------9----------------------------|
A|-3--------------5--------------7----------------------------|
D|-3--------------5--------------7----------------------------|

X2

Then 

CHORUS:

With this chorus, there are parts where the timing is different than the other choruses.
Listen to how it goes to get the timing.

|-------------------15-14-|   
|-14-15-17-17-12-12-------|    
|-------------------12-11-|    
|-11-12-14-14-9--9--------| x8
|-------------------------|   
|-------------------------|    

Finally

OUTRO:

Play this like the intro and interlude.
This part starts like this but towards the end they mix it all up with their modelers.

**delay on**

e|--------------------------------------*22-*22-*21---|
B|----*15------------*17-------------*19--------------|
G|----------------------------------------------------|
D|-9-------------11--------------12-------------------| x16
A|-9-------------11--------------12-------------------|
D|-9-------------11--------------12-------------------|


The End! Have fun!

| *  tap w/ strumming hand
| s  slide
| h  hammer-on
| p  pull-off
| ~  vibrato
| x  Mute note

=============================================================================

Добавлено: 21.05.2012
Другие материалы по этой песне:

Страница создана 07.04.2012
http://primanota.ru/minus-the-bear/pachuca-sunrise-chords.htm
Привет, Гость.
Предлагаем пройти революционный курс по гитаре.
Подарок от PrimaNota.Ru, забирай!