PrimaNota.ru - самый крупный в мире бесплатный архив песенных текстов, аккордов, табулатур и нот


Minus The Bear - Lotus - таба, видео

Регистрация Запомнить меня
Войти через:  Facebook Google Twitter Vk Yandex Mail.ru

Minus The Bear - Lotus - таба, видео

Печатать
Просмотров: 164
Уроки эстрадного вокала в Санкт-Петербурге
Minus the Bear
Planet of Ice
Lotus (solo)
h hammer-on
p pull-off
/ slide
b(X) bend to X
r return from bend
x dead note
x/ scrape
~ vibrato
Starts at 5:58
E|-------------------------------------------12b(14)b(15)r----------|
B|-10h12~-------10-12-------------10--12b(14)r---------------10-10~-|
G|---------9h11---------9-9---11------------------------------------|
D|------------------------------------------------------------------|
A|------------------------------------------------------------------|
D|------------------------------------------------------------------|

E|-10--------------------------------------------------------------------------|
B|-10-10~----------------------------------------------------------------------|
G|-10---------------------------------------------------------------8b(9)rb(9)-|
D|---------10-9----------14/-9--6b(7)rb(7)-8b(9)rb(9)-10b(11)rb(11)------------|
A|----------------x/-7/9-------------------------------------------------------|
D|-----------------------------------------------------------------------------|

E|-12b(14)rb(14)-----10----10h12---12b(14)rb(14)/0-|
B|---------------10-----12-------------------------|
G|-------------------------------------------------|
D|-------------------------------------------------|
A|-------------------------------------------------|
D|-------------------------------------------------|

E|----------------------------------------------------------------|
B|------------------------------------------------------8-----8-9-|
G|---------------11~---9h10-10b(12)r-7-7~----7-----7-------8------|
D|----7h9b(11)r---------------------------10---7-7---10-----------|
A|-7h9------------------------------------------------------------|
D|----------------------------------------------------------------|

E|----------10h12----|    Yes, it's that easy. After that, there's
B|-12----12----------|    a few seconds of keyboardary and whatnot.
G|----13-------------|    It sounds really cool, but I'm not gonna
D|-------------------|    tab it ‘cuz I'm lazy. You may use this rest
A|---Great Job!------|    to reflect on how awesome this song is.
D|-------------------|    Yes, I ended a sentence with 'is

7:04(I think I really screwed this part up, but it's a start…)
E|---------------------------------------------------|
B|-----8---------------------------------------------|
G|-/9------9/-----7----------7--------------------7--|
D|------------/9------9/-/8------8/------11---8h9----|
A|-----------------------------------/9--------------|
D|---------------------------------------------------|

E|------------------------------------------------------------|
B|------8-----------------------------------------------------|
G|-/9------/9-----7----------7--------------------------------|
D|------------/9------/9-/8------8/------11---9h11p9h11p9h11--|
A|-----------------------------------/9-----------------------|
D|------------------------------------------------------------|

E|---------------------------------------------------|
B|-----8---------------------------------------------|
G|-/9------9/-----7----------7--------------------7--|
D|------------/9------9/-/8------8/------11---8h9----|
A|-----------------------------------/9--------------|
D|---------------------------------------------------|

E|-------------------------------------------------------------|
B|-----8-----8-----8-----8-----8-----8-----8---8b(11)r-11b(13)-|
G|-7h9---7h9---7h9---7h9---7h9---7h9---7h9---7-----------------|
D|-------------------------------------------------------------|
A|----------------<;{{{><--------------------------------------|
D|------------------------------------------------------|
Ok, so there's what I got from it. If you think it's wrong, correct it, if you think 
right, rate it…
Добавлено: 20.04.2012
Другие материалы по этой песне:
  • Аккорды и текст

Страница создана 20.04.2012
http://primanota.ru/minus-the-bear/lotus-chords.htm
Привет, Гость.
Предлагаем пройти революционный курс по гитаре.
Подарок от PrimaNota.Ru, забирай!