PrimaNota.ru - самый крупный в мире бесплатный архив песенных текстов, аккордов, табулатур и нот


Minus The Bear - Knights - таба, драм-таба, видео

Регистрация Запомнить меня
Войти через:  Facebook Google Twitter Vk Yandex Mail.ru

Minus The Bear - Knights - таба, драм-таба, видео

Печатать
Просмотров: 128
-------------------------------------------|
                 Knights - minus the bear -|
Tabbed by:nibbleschew
Email: fuzzycheese100@yahoo.com

Tuning:EADGBE


Guitar 1: Dave
-----------------------IMPORTANT
*Dave Knudson has 4 DL-4's and puts them to use, I personally have 2 and they
work great with the boss giga delay... anyways,
now the beginning riff is done with some moderate DL-4 work if your familiar with it. What
you do is you find the time of the song, put it on half speed, tap the recording to one  
then
take off the half speed, and play a D on the A string and stop recording. then..

Tip: I'm pretty sure its in 6/8..

Riff 1:
D|-----------------------------------------------------------------------------|
A|--2--5-5-2-(hit DL-4 so it sounds like)-555555 (then stop)-------------------|
E|-----------------------------------------------------------------------------|

Riff 2: Delay: Set to Sweep Echo, tap the time along with song...
e|---------------------------------------|
B|---------------------------------------|
G|---------------------------------------|
D|--11--11h12--11-9----------------------|
A|------------------12121212121212-10-9--|
E|---------------------------------------|

Riff 3: Moderate reverb, no dramatic delay
e|-----------------------|----------------21-----|
B|----19-----------------|--19-------------------|
G|--------18--19--17-----|------18--19-----------|
D|--------------------16-|-----------------------|
A|-----------------------|-----------------------|
E|-----------------------|-----------------------|

Riff 4: I Play it with Sweep Echo 4x then No delay 4x but its up to you.
e|-------------------------------|
B|-------------------------------|
G|-----11--11--11p9-11p9---------|
D|-----11--11--11p9-11p9---------|
A|-------------------------------|
E|-------------------------------|

Riff 5:
e|--------------------------------------------|
B|--------------------------------------------|
G----------9----9-11-10-9---------------------|
D|-9-10-11---11-----------11-10---------------|
A|--------------------------------------------|
E|--------------------------------------------|
   Play 2x
e|------------------------------|-------------------------19----|
B|---12--1212-14-b14b14b14b14---|-12--12-12-14-b14--------------|
G|------------------------------|-------------------------------|
D|------------------------------|-------------------------------|
A|------------------------------|-------------------------------|
E|------------------------------|-------------------------------|
 * Each time you bend the C#(14), It should sound like a D(15), then bend back down to 
Play Entire Riff 2x

Riff 6:
e|----------------------------------------------------------------19-----------|
B|--------------------17-17-17-----17---19-19-19--17---------------------------|
G|------------17--18------------18-------------------18-17h18p17-----17-16-----|
D|--16-16-16-------------------------------------------------------------------|
A|-----------------------------------------------------------------------------|
E|-----------------------------------------------------------------------------|
*After you play this 4x, there are other parts when it is played an octave lower, but
transcribe it yourself please cause I'm way to lazy lol.


Guitar 2: Jake
After going through Dave's part, you'll come to realize Jake's part is simplier, but
a lot of work for the man seeing as he has to sing as well.

Riff 1:
e|--------------9------------------|
B|--12------10-----12---------10---|
G|------11-------------9--11-------|
D|---------------------------------|
A|---------------------------------|
E|---------------------------------|

Riff 2:
e|--------------------------------------|
B|--------------------------------------|
G|---9----x-x-xxx--9--11----------------|
D|---x----x-x-xxx--x--x-----------------|
A|---7----x-x-xxx--7--9-----------------|
E|--------------------------------------|
* the muting in the middle is optional.. although it may sound incorrect, listen
;)

Riff 3: Same as Dave's only an octave lower
e|-----------------------|-------------9-------|
B|----7------------------|-7-------------------|
G|-------6--7----5-------|----6--7-------------|
D|------------------4----|---------------------|
A|-----------------------|---------------------|
E|-----------------------|---------------------|

Riff 4:
e|-------------------------------|
B|-------------------------------|
G|-----11--11--11p9-11p9---------|
D|-----11--11--11p9-11p9---------|
A|-------------------------------|
E|-------------------------------|

Riff 5:
e|--------------------------------------------|
B|--------------------------------------------|
G----------9----9-11-10-9---------------------|
D|-9-10-11---11-----------11-10---------------|
A|--------------------------------------------|
E|--------------------------------------------|
   Play 2x
e|------------------------------|-------------------------19----|
B|---12--1212-14-b14b14b14b14---|-12--12-12-14-b14--------------|
G|------------------------------|-------------------------------|
D|------------------------------|-------------------------------|
A|------------------------------|-------------------------------|
E|------------------------------|-------------------------------|
 * Each time you bend the C#(14), It should sound like a D(15), then bend back down to 
Play Entire Riff 2x

Riff 6:
e|----------------------------------------------------------------19-----------|
B|--------------------17-17-17-----17---19-19-19--17---------------------------|
G|------------17--18------------18-------------------18-17h18p17-----17-16-----|
D|--16-16-16-------------------------------------------------------------------|
A|-----------------------------------------------------------------------------|
E|-----------------------------------------------------------------------------|
*After you play this 4x, there are other parts when it is played an octave lower, but
transcribe it yourself please cause I'm way to lazy lol.

| /  slide up
| \  slide down
| h  hammer-on
| p  pull-off
| ~  vibrato
| +  harmonic
| x  Mute note
===============================================================================

  Contact:
-------------------------
  I'm open for criticizm,
  please comment, I'll update if/when errors are found.
  you can also contact me at...
  fuzzycheese100@yahoo.com OR
  myspace.com/add92x
Добавлено: 09.05.2012
Другие материалы по этой песне:

Страница создана 25.02.2012
http://primanota.ru/minus-the-bear/knights-chords.htm
Привет, Гость.
Предлагаем пройти революционный курс по гитаре.
Подарок от PrimaNota.Ru, забирай!