PrimaNota.ru - самый крупный в мире бесплатный архив песенных текстов, аккордов, табулатур и нот


Minus The Bear - Fix - текст песни, таба, видео

Регистрация Запомнить меня
Войти через:  Facebook Google Twitter Vk Yandex Mail.ru

Minus The Bear - Fix - текст песни, таба, видео

Печатать
Просмотров: 202
Уроки эстрадного вокала в Санкт-Петербурге
Tabbed by: Zorrobudday
Email:okzorrobudday@sbcglobal.net

Tuning: DADGBE(x8)
Guitar 1 Intro and Chorus
e|19-17-17-17-19-19-17-17-17--19-17-17-17-19-19-17-19-17--------------------|
B|17-17-15-17-17-17-17-15-17--17-17-15-17-17-17-17-17-17--------------------|
G|--------------------------------------------------------------------------|
D|--------------------------------------------------------------------------|
A|--------------------------------------------------------------------------|
D|--------------------------------------------------------------------------|

Guitar 2(x2)Intro only
e|4--4--2--2----------------------------------------------------------------|
B|4--4--5--5----------------------------------------------------------------|
G|4--4--2--2----------------------------------------------------------------|
D|6--6--2--2--------------4-4-----------------------------------------------|
A|4--4--0--0----------2-2----2-2--------------------------------------------|
D|------------------------------0-------------------------------------------|

Verse
e|7/9-9-9-9-9--7/9-9-9-9-9-7/9-9-9-9-9--14-14--14-14------------------------|
B|7/9-9-9-9-9--7/9-9-9-9-9-7/9-9-9-9-9--12-12--12-12------------------------|
G|7/9-9-9-9-9--7/9-9-9-9-9-7/9-9-9-9-9--------------------------------------|
D|--------------------------------------------------------------------------|
A|--------------------------------------------------------------------------|
D|--------------------------------------------------------------------------|

Pre-Chorus(x4)
e|9--7-5-7------------------------------------------------------------------|
B|9--7-5-7------------------------------------------------------------------|
G|9--7-5-7------------------------------------------------------------------|
D|11-9-7-9------------------------------------------------------------------|
A|--------------------------------------------------------------------------|
D|--------------------------------------------------------------------------|

Guitar 2 Chorus
e|--------------------------------------------------------------------------|
B|--------------------------------------------------------------------------|
G|6-6-6-2--4/6-9-6-6--------------------------------------------------------|
D|6-6-6-2------9-6-6--------------------------------------------------------|
A|4-4-4-0------7-4-4--------------------------------------------------------|
D|--------------------------------------------------------------------------|

Bridge
e|12/16----------12/16----------12/16-------------------12/16---------------|
B|-----14--14h17------14--14h17------14--14h17-14-16-17------14--14h17------|
G|-------16-------------16-------------16----------------------16-----------|
D|--------------------------------------------------------------------------|
A|--------------------------------------------------------------------------|
D|--------------------------------------------------------------------------|

e|--------------12/16-------------------------------------------------------|
B|16-14-17-----------14--14h17-17-17-14-14----------------------------------|
G|---------------------16---------------------------------------------------|
D|--------16/18-------------------------------------------------------------|
A|--------------------------------------------------------------------------|
D|--------------------------------------------------------------------------|

Crazy Solo that probably isnt right
e|----------------------------------4p2p0----------------------14-14-----12-|
B|---------------------------------------2p0-(crazy shit)-12-12-----12-12---|
G|--------------------------------------------------------------------------|
D|-----------------------2-4-4-4-4-4----------------------------------------|
A|2-4-4-4-4-4-2-4-4-4-4-4---------------------------------------------------|
D|--------------------------------------------------------------------------|

The solo is missing some of the insane tapping. Other that, this should be right. Enjoy.
-Z
Добавлено: 02.07.2012
Другие материалы по этой песне:
  • Аккорды и текст

Страница создана 25.05.2012
http://primanota.ru/minus-the-bear/fix-chords.htm
Привет, Гость.
Предлагаем пройти революционный курс по гитаре.
Подарок от PrimaNota.Ru, забирай!