PrimaNota.ru - самый крупный в мире бесплатный архив песенных текстов, аккордов, табулатур и нот


Minus The Bear - Dayglow Vista Rd - таба, бас-таба, видео

Регистрация Запомнить меня
Войти через:  Facebook Google Twitter Vk Yandex Mail.ru

Minus The Bear - Dayglow Vista Rd - таба, бас-таба, видео

Печатать
Просмотров: 94
-------------------------------------------------------------------------------
                             Dayglow Vista Rd. - Minus the Bear
-------------------------------------------------------------------------------
Tabbed by: George


Tuning: Standard

i can't believe no one has tabbed my favorite song from Omni. Fools!

    intro- repeat each chord how ever many times is needed, too many to write out fully
          i'm just trying to show to chord sequence here.
        0:00 just left guitar,      at 0:29 both guitars 
e|--------------------------------------------------------------------------------|
B|--------------------------------------------------------------------------------|
G|-----13------13-----13------11-----11----11------13----13------11-11-11-let-ring|
D|----------------------------------------------------------------x--x--x---------|
A|--------11-----11------11------9------9-----9-------11----11----9--9--9---------|
E|---0-------0------0-------0------0------0------0-------0-----0--0--0--0---------|
     
    guitar 4x
e|---------------------------------------------------------------------------|
B|---------------------------------------------------------------------------|   
G|-13--13----11---11------8---8----6---6-----8---8---------------------------|             
D|--x---x-----x----x------x---x----x---x-----x---x---------------------------|
A|-11--11-----9----9------6---6----4---4-----6---6---------------------------|
E|--0---0-----0----0------0---0----0---0-----0---0---------------------------|

       
keyboard part 
e|---------------------------------------------------------------------------------|
B|----16--14------14--------------14-16---------16--14------14-------------14-16---|
G|------------16-----------13-16------------------------16--------13-16------------|
D|---------------------------------------------------------------------------------|
A|---------------------------------------------------------------------------------|
E|---------------------------------------------------------------------------------|

e|----------------15---------------------------------------15--------------------------|
B|----16--14----------------------14-17---------16--14---------------------------------|
G|------------16-----------13-16------------------------16--------13-16----13----------|
D|-------------------------------------------------------------------------------------|
A|-------------------------------------------------------------------------------------|
E|-------------------------------------------------------------------------------------|
    
 verses - just back and forth between the two chords, end on 11, 9.
e|---------------|
B|---------------|
G|---13---11-----|
D|----x----x-----|
A|---11----9-----|
E|----0----0-----|
     
   chorus
e|---------------------------------------------------------------------------|
B|---------------------------------------------------------------------------|   
G|-13--13----11---11------8---8----6---6-----8---8---------------------------|             
D|--x---x-----x----x------x---x----x---x-----x---x---------------------------|
A|-11--11-----9----9------6---6----4---4-----6---6---------------------------|
E|--0---0-----0----0------0---0----0---0-----0---0---------------------------|

  on the third and four time, left guitar does this
e|---------------------------------------------------------------------------|
B|---------------------------------------------------------------------------|
G|--13--13---x--x--------11--11-----x--x-----8--8-----x--x-----6--6--8--8----|
D|---x---x---x--x---------x---x-----x--x-----x--x-----x--x-----x--x--x--x----|
A|--11--11---x--x---------9---9-----x--x-----6--6-----x--x-----4--4--6--6----|
E|---0---0---x--x---------0---0-----x--x-----0--0-----x--x-----0--0--0--0----|

      
   keyboard during second verse
e|-----------------------------------------------------------------------------------------|
B|----------14h16----------14-16---------16p14---------------14h16--------14---16p14----14-|
G|---13h16----------13-16---------13h16---------------13h16---------13h16------------16----|
D|-----------------------------------------------------------------------------------------|
A|-----------------------------------------------------------------------------------------|
E|-----------------------------------------------------------------------------------------|

   
e|-----------------------------------------------------------------------------------------|
B|----------14h16----------14-16---------16p14---------------14h16--------14-----14------16|
G|---13h16----------13-16---------13h16---------------13h16---------13-16-----13----13-----|
D|-----------------------------------------------------------------------------------------|
A|-----------------------------------------------------------------------------------------|
E|-----------------------------------------------------------------------------------------|

   chorus 
 
e|---------------------------------------------------------------------------|
B|---------------------------------------------------------------------------|   
G|-13--13----11---11------8---8----6---6-----8---8---------------------------|             
D|--x---x-----x----x------x---x----x---x-----x---x---------------------------|
A|-11--11-----9----9------6---6----4---4-----6---6---------------------------|
E|--0---0-----0----0------0---0----0---0-----0---0---------------------------|

  on the third and fourth time, left guitar 
e|----------------------------------------------------------------------------|
B|----------------------------------------------------------------------------|
G|--13--13---x--x--------11--11-----x--x-----8--8-----x--x-----4--4--8--8-----|
D|---x---x---x--x---------x---x-----x--x-----x--x-----x--x-----x--x--x--x-----|
A|--11--11---x--x---------9---9-----x--x-----6--6-----x--x-----2--2--6--6-----|
E|---0---0---x--x---------0---0-----x--x-----0--0-----x--x-----0--0--0--0-----|

    bridge
e|--------------------------------------------------------------------------------|
B|----------------------------------------------------------------------12\-------|
G|---13---11---11---8---8---6--6--4-------13-13-13--11v---13b-11v---11------------|
D|----x----x----x---x---x---x--x--x-----------------------------------------------|
A|---11----9----9---6---6---4--4--2-----------------------------------------------|
E|----0----0----0---0---0---0--0--0-----------------------------------------------|

the effects make it hard to tell what's going on, but I think this is right
e|------------------------------------------------------------|
B|---16\14/16----14\12/14---------16\14/16---16/21\16\--------|
G|---13\11/13----11\9/11----------13\11/13---13/18\13\--------|
D|------------------------------------------------------------|
A|------------------------------------------------------------|
E|------------------------------------------------------------|
 
e|-------------------------------------------------------------------------------------------|
B|-------------------------------------------------------------------------------------------|
G|-----8-----8-------8------11-----11-------11------11-11-11---13-13--11--11--8-8--6-6--8-8--|
D|---------------------------------------------------x--x--x----x--x---x---x--x-x--x-x--x-x--|
A|-------6------6-------6-------9------9-------9-----9--9--9---11-11---9---9--6-6--4-4--6-6--|
E|--0------0-------0------0-------0-------0------0---0--0--0----0--0---0---0--0-0--0-0--0-0--|

e|----------------------------------------------------------------------------------------------|
B|----------------------------------------------------------------------------------------------|
G|--20--20-18--18-21---21-20------8\6/8---13\--13\---16\--16\---18\---18\--20--20--20--20--20---|
D|---x---x--x---x--x----x--x------x-x-x----x----x-----x----x-----x-----x----x---x---x---x---x---|
A|--18--18-16--16-19---19-18------6\4/6---11\--11\---14\--14\---16\---16\--18--18--18--18--18---|
E|---0---0--0---0--0----0--0------0-0-0----0----0-----0----0-----0-----0----0---0---0---0---0---|
    
e|------------------------------------------------------------------------------------|
B|------------------------------------------------------------------------------------|
G|--21--20\--13-----eight times--------11--four times--------13---five times----------|
D|------------x-------------------------x---------------------x-----------------------|
A|-----------11-------------------------9--------------------11-----------------------|
E|------------0-------------------------0---------------------0-----------------------|

right guitar (Jake's) variations on chorus throughout the song

e|--------------------------------------------------------|
B|--------------------------------------------------------|   
G|-13--13----11---11------6-8-9----4/6-----6\4------------|             
D|--x---x-----x----x---------------x-------x--------------|
A|-11--11-----9----9---------------2/4-----4\2------------|
E|--0---0-----0----0---------------0-------0--------------|

e|--------------------------------------------------------|
B|--------------------------------------------------------|   
G|-13--13----11---11------13-13-11-8-6~-------------------|             
D|--x---x-----x----x--------------------------------------|
A|-11--11-----9----9--------------------------------------|
E|--0---0-----0----0--------------------------------------|

                        
e|--------------------------------------------------------|
B|--------------------------------------------------------|   
G|-13--13----11---11------13--13----13--13----------------|             
D|--x---x-----x----x-------x---x-----x---x----------------|
A|-11--11-----9----9------11--11----11--11----------------|
E|--0---0-----0----0-------0---0-----0---0----------------|
                          ^these are about half a beat after Dave's duh-duh
e|--------------------------------------------------------|
B|--------------------------------------------------------|   
G|-13--13----11---11-------x-13-11-8-6~-------------------|             
D|--x---x-----x----x----------x---------------------------|
A|-11--11-----9----9---------11---------------------------|
E|--0---0-----0----0--------------------------------------|

chorus before the bridge, 3rd time
e|--------------------------------------------------------|
B|--------------------------------------------------------|   
G|-13--13----11---11------13--11----13--11---8b-----------|             
D|--x---x-----x----x-------x---x-----x---x---x------------|
A|-11--11-----9----9------11---9----11---9---6b-----------|
E|--0---0-----0----0-------0---0-----0---0---0------------|


also,
you can do this for some of the choruses and it sounds good too
e|---------------------------------------------------------------------------|
B|---------------------------------------------------------------------------|   
G|-13--13----11---11------8---8----4---4-----6---6---------------------------|             
D|--x---x-----x----x------x---x----x---x-----x---x---------------------------|
A|-11--11-----9----9------6---6----2---2-----4---4---------------------------|
E|--0---0-----0----0------0---0----0---0-----0---0---------------------------|


                          
this is my first tab but i think it's right. feel free to copy it and add changes to it. i dont care,
couldn't figure the backing guitar part during the choruses, sorry
-end-


************************************

| /   slide up
| \   slide down
| h   hammer-on
| p   pull-off
| ~   vibrato
| +   harmonic
| x   Mute note
| b   Bend
| pb  Pre-bend
| br  Bend release
| pbr Pre-bend release
| brb Bend release bend

************************************
Добавлено: 11.09.2014
Другие материалы по этой песне:
  • Аккорды и текст

Страница создана 14.10.2013
http://primanota.ru/minus-the-bear/dayglow-vista-rd-chords.htm
Привет, Гость.
Предлагаем пройти революционный курс по гитаре.
Подарок от PrimaNota.Ru, забирай!