PrimaNota.ru - самый крупный в мире бесплатный архив песенных текстов, аккордов, табулатур и нот


Minor Threat - Sob Story - текст песни, таба, видео

Регистрация Запомнить меня
Войти через:  Facebook Google Twitter Vk Yandex Mail.ru

Minor Threat - Sob Story - текст песни, таба, видео

Печатать
Просмотров: 173
Авторы музыки: Minor Threat
Авторы текста: Ian MacKaye
Sob Story
by: Minor Threat

e-------------------|
B-------------------|
G-------------------|
D-333--555--9-------|
A-333--555--9-------|
E-111--333--7-------|(Let last chord ring)
  --   --            - = Palm Mute

Verse
e-------------------------  e--------------------------|
B-------------------------  B---------888---------888--|
G----77-9--------77-9-----  G----77-9-777----77-9-777--|
D-99-77-9-777-99-77-9-777-  D-99-77-9-555-99-77-9-555--|
A-99-55-7-777-99-55-7-777-  A-99-55-7-----99-55-7------|
E-77------555-77------555-  E-77----------77-----------|  repeat whole verse

Chorus
e----------------------------------------   e-----------------------------    e---|
B-----------------77777------------------   B------77777------------------    B---|
G-----------------66666-77---------------   G------66666-77---------------    G---|
D-333--555--9999--44444-77-9999-77-4444--   D-9999-44444-77-9999-77-4444--    D-9-|
A-333--555--9999--------55-9999-77-4444--   A-9999-------55-9999-77-4444--    A-9-|
E-111--333--7777-----------7777-55-2222--   E-7777----------7777-55-2222-- x3 E-7-|
  --   --
*Note* The power chord on the D string can be substituted by power chord  G-11--
 use whichever is easier                                                  D-11--
                                                                          A-9 --
                                                                          E-----
Fill
e---------|
B-10------|
G---9-----|
D-----12--|
A---------|
E---------|


Verse
e-------------------------  e--------------------------|
B-------------------------  B---------888---------888--|
G----77-9--------77-9-----  G----77-9-777----77-9-777--|
D-99-77-9-777-99-77-9-777-  D-99-77-9-555-99-77-9-555--|
A-99-55-7-777-99-55-7-777-  A-99-55-7-----99-55-7------|
E-77------555-77------555-  E-77----------77-----------|  X2

Chorus
e----------------------------------------   e-----------------------------    e---|
B-----------------77777------------------   B------77777------------------    B---|
G-----------------66666-77---------------   G------66666-77---------------    G---|
D-333--555--9999--44444-77-9999-77-4444--   D-9999-44444-77-9999-77-4444--    D-9-|
A-333--555--9999--------55-9999-77-4444--   A-9999-------55-9999-77-4444--    A-9-|
E-111--333--7777-----------7777-55-2222--   E-7777----------7777-55-2222-- x3 E-7-|
  --   --
*Note* The power chord on the D string can be substituted by power chord  G-11--
 use whichever is easier                                                  D-11--
                                                                          A-9 --
                                                                          E-----

Fill
e-3333333333-5555555555---------------------------------------------------------|
B-3333333333-5555555555---------------------------------------------------------|
G--------------------------------9-8-9----------9-8-9-----------9-8-9-----------|
D-----------------------99999999-9-8-9-77777777-9-8-9-666666666-9-8-9-66666666--|
A-----------------------99999999-7-6-7-77777777-7-6-7-666666666-7-6-7-66666666--|
E-----------------------77777777-------55555555-------444444444-------44444444--|
                        --------       --------       ---------       ----------|
e-------------------------------------------------------------------------------|
B-------------------------------------------------------------------------------|
G-----6-------------------------------------------------------------------------|
D-7-6-6-------------------------------------------------------------------------|
A-7-6-4-------------------------------------------------------------------------|
E-5-4---------------------------------------------------------------------------| Let last chord ring


 Verse
e-------------------------  e--------------------------|
B-------------------------  B---------888---------888--|
G----77-9--------77-9-----  G----77-9-777----77-9-777--|
D-99-77-9-777-99-77-9-777-  D-99-77-9-555-99-77-9-555--|
A-99-55-7-777-99-55-7-777-  A-99-55-7-----99-55-7------|
E-77------555-77------555-  E-77----------77-----------|  X2


END
e----------555555555555-----|
B----------555555555555-----|
G---------------------------|
D-333--555--------------999-|
A-333--555--------------999-|
E-111--333--------------777-| (Let ring)
Добавлено: 12.06.2012
Другие материалы по этой песне:
  • Аккорды и текст

Страница создана 13.04.2012
http://primanota.ru/minor-threat/sob-story-chords.htm
Привет, Гость.
Предлагаем пройти революционный курс по гитаре.
Подарок от PrimaNota.Ru, забирай!