PrimaNota.ru - самый крупный в мире бесплатный архив песенных текстов, аккордов, табулатур и нот


Minor Threat - Filler - аккорды и текст, таба, бас-таба, видео

Регистрация Запомнить меня
Войти через:  Facebook Google Twitter Vk Yandex Mail.ru

Minor Threat - Filler - аккорды и текст, таба, бас-таба, видео

Печатать
Просмотров: 230
Авторы музыки: Minor Threat
Авторы текста: Ian MacKaye
Filler
Minor Threat
		   Received: from husc7.harvard.edu (husc7.harvard.edu [128.103.25.7]) by post-office.nevada.edu (8.6.4/8.6.4) with SMTP id MAA14586 for  jamesb@nevada.edu>; Tue, 1 Feb 1994 12:14:15 -0800
Message-Id:  9402012014.AA10758@husc7.harvard.edu>

Article 6388 of alt.guitar.tab:
Path: husc.harvard.edu!husc-news.harvard.edu!das-news.harvard.edu!cantaloupe.srv.cs.cmu.edu!fs7.ece.cmu.edu!
 europa.eng.gtefsd.com!howland.reston.ans.net!usc!elroy.jpl.nasa.gov!newncar!csn!boulder!cnsnews!spot.Colorado.EDU!andersom
Newsgroups: rec.music.makers.guitar.tablature,alt.guitar.tab
Message-ID:  CKH3LK.IHJ@cnsnews.Colorado.EDU>
Sender: usenet@cnsnews.Colorado.EDU (Net News Administrator)
Organization: University of Colorado, Boulder
Nntp-Posting-Host: spot.colorado.edu
Lines: 339
Xref: husc.harvard.edu rec.music.makers.guitar.tablature:5761 alt.guitar.tab:6388

I promised this a long time ago, but school tied me up...

-marc
andersom@spot.colorado.edu

------ cut here ---------
                         -=-=-=-=-=-=-=-=-=-=-=--=-=-=
                         Minor Threat Guitar Tablature
                         =-=-=-=-=-=-=-=-=-=-=--=-=-=-

all songs transcribed by Marc Anderson (andersom@spot.colorado.edu).

most of these songs are fairly easy and straight forward with the exception
of a couple that have 5 or 6 power cords rather than 2 or 3.  all the songs
from the _discography_ CD have been transcribed -- this has really all their
stuff aside maybe some really rare shit.

sometimes the rhythm isn't specified because the music is played fairly fast,
and it would just take forever to list tons of repetitive notes..just use
this as a guide to the notes played -- listen to the tape to pick up the
rhythm..  and if you disagree with any of my interpretations, please let me
know...


"Filler"

|------------------------------------------------------------------------------
|------------------------------------------------------------------------------
|------------------------------------------------------------------------------
|---6-4-2---9-7-2--------------------------------------------------------------
|-4-4-2-0---7-5-0-4------------------------------------------------------------
|-2---------------2------------------------------------------------------------
    x4       x2
  (verse)  (chorus)


"I Don't Wanna Hear It"

|------------------------------------------------------------------------------
|------------------------------------------------------------------------------
|-----------4---6-4------------------------------------------------------------
|-------4-4-2---4-2-4-6-4------------------------------------------------------
|-4-4---4-2---------2-4-2-4----------------------------------------------------
|-2-2-0-2-----------------2----------------------------------------------------
    x4            x4
  (verse)      (chorus)


"Seeing Red"

|------------------------------------------------------------------------------
|------------------------------------------------------------------------------
|------------------------------------------------------------------------------
|-----------5---------7--------------------------------------------------------
|-7-5-3-2---3-5-7-2-2-5--------------------------------------------------------
|-5-3-1-0-----3-5-0-1----------------------------------------------------------
  (intro   (verse)
     &
  chorus)


"Straight Edge"

|------------------------------------------------------------------------------
|------------------------------------------------------------------------------
|------------------------------------------------------------------------------
|-------5-3---7-5--------------------------------------------------------------
|-5-8---3-1-3-5-3-5------------------------------------------------------------
|-3-6-------1-----3------------------------------------------------------------
 (vrs)  (change)


"Small Man, Big Mouth"

|------------------------------------------------------------------------------
|------------------------------------------------------------------------------
|-5----------------------------------------------------------------------------
|-3-5-5---5-------5---9--------------------------------------------------------
|---3-3-5-3-5---2-3-7-7--------------------------------------------------------
|-------3---3---0---5----------------------------------------------------------
      x4         x4
   (verse)    (chorus)


"Screaming At A Wall"
                                         pm.....
|------------------------------------------------------------------------------
|------------------------------------------------------------------------------
|------------------------------------------------------------------------------
|-----------------12---3-4-5---5-6-7-------9-7---------------------------------
|-7-9-10-5-7-9-10-10---1-2-3-5-3-4-5-8---9-7-5-7-------------------------------
|-5-7-8--3-5-7-8-------------3-------6---7-----5-------------------------------
      x4                     x4            x8
    (verse)                (chorus)     (change -- some not muted)


"Bottled Violence"

|------------------------------------------------------------------------------
|------------------------------------------------------------------------------
|------------------------------------------------------------------------------
|---5-7---5-------5-5-3--------------------------------------------------------
|-7-3-5-3-3-7---5-3-3-1--------------------------------------------------------
|-5-----1---5---3--------------------------------------------------------------
                  x4
    (verse)     (chorus)


"Minor Threat"

|------------------------------------------------------------------------------
|------------------------------------------------------------------------------
|------------------------------------------------------------------------------
|-7---9-5-----4---4-7----------------------------------------------------------
|-5-7-7-3-5---2-3-2-5----------------------------------------------------------
|---5-----3-----1--------------------------------------------------------------
                x2
 (verse)    (pre-chorus)
 (chorus is just verse but played fast)


"Stand Up"

|------------------------------------------------------------------------------
|------------------------------------------------------------------------------
|------------------------------------------------------------------------------
|-----5---7---9------9---5-7---------------------------------------------------
|-7-4-3-5-5-7-7-10---7-7-3-5---------------------------------------------------
|-5-2---3---5---8------5-------------------------------------------------------
        x2             x4        (verse played 4 times at beginning)
      (verse)        (chorus)


"12XU"

|------------------------------------------------------------------------------
|------------------------------------------------------------------------------
|------------------------------------------------------------------------------
|---5-----2---7----------------------------------------------------------------
|-3-3-5---2---5----------------------------------------------------------------
|-1---3---0--------------------------------------------------------------------
          ^ fast alternately picked or muted?  unsure


"In My Eyes"

                  pm.....
|------------------------------------------------------------------------------
|------------------------------------------------------------------------------
|------------------------------------------------------------------------------
|-9-8-7---7---9-----------5---8---10 10 12---5-7-5-7-------9-7--5--------------
|-7-6-5-0-5-0-7---5-5-----3-7-6-8-8--8--10---3-5-3-5-7-9---7-5--3--------------
|-----------------3-3-...---5---6--------------------5-7-----------------------
     x8                     x6                  x4
  (intro)                 (verse)             (chorus)


"Out Of Step"

|------------------------------------------------------------------------------
|------------------------------------------------------------------------------
|-------------7-9-7----------9-------------------------------------------------
|-7-10-7-10-7-5-7-5---9----9-7---7-10-7-10-7-5-8-5-8-5-------------------------
|-5-8--5-8--5---------7-11-7-----5-8--5--8-5-3-6-3-6-3-(solo ???)--------------
|-----------------------9------------------------------------------------------
        x4             x2
      (verse)       (chorus)  (pre-solo)


"Guilty of Being White"

|------------------------------------------------------------------------------
|------------------------------------------------------------------------------
|------------------------------------------------------------------------------
|---7---10---7-5-------------5-------------------------------------------------
|-5-5-8-8----5-3-3-5---7-2-3-3-------------------------------------------------
|-3---6----------1-3---5-0-1---------------------------------------------------
     x8       x4         x4
   (verse)  (chorus)  ("I'm a convict...")


"Steppin' Stone"

|------------------------------------------------------------------------------
|------------------------------------------------------------------------------
|------------------------------------------------------------------------------
|-------5----------------------------------------------------------------------
|-2-5-7-3---2-5-7-5------7-5---------------------------------------------------
|-0-3-5-----0-3-5-3----------7-0-----------------------------------------------
  (verse)   (fast part) (bridge)


"Betray"

|------------------------------------------------------------------------------
|------------------------------------------------------------------------------
|-------------7-9-10---10-7-9--------------------------------------------------
|-7-------7-9-5-7-9----9--5-7-7---7-------------5---------7-------5-7-10-9-----
|-5-7---2-5-7-----------------5---5-7---2-2-----3---------5-------3-5-8--7-----
|---5---0---------------------------5---0-0-...---0-0-...-----0-0------------
                         x4                    x4
        (prechorus)   (verse)               (chorus)           (slow part)


"It Follows"

|------------------------------------------------------------------------------
|------------------------------------------------------------------------------
|---------------------------------4--------------------------------------------
|-------7-----9-------------------2-4---5--------------------------------------
|-9-8-7-5---5-7---5-7-2---5-7-9-----2-5-3-4------------------------------------
|-7-6-5---0-3-----3-5-0---3-5-7-------3---2------------------------------------
      x4           x3      x1
   (verse)          (chorus)


"Think Again"

|------------------------------------------------------------------------------
|------------------------------------------------------------------------------
|---------------------------7---7-----7----------------------------------------
|---------------------------5-9-5-7-7-5-----------5---7---8-7------------------
|-7-6-------7-7-6/7/9---------7---5-5---5-6---3-3-3-5-5---6-5------------------
|-----2-5-7-----------5-7---------------3-5---1-1---3--------------------------
         x2                   x4             x4
      (intro)              (verse)        (verse)       (chorus)


"Look Back and Laugh"

|------------------------------------------------------------------------------
|------------------------------------------------------------------------------
|------------------------------------------------------------------------------
|------------------------------------------------------------------------------
|---------------6-6-----9-9-9-5-------------------6-6------9-9-9-5-7-----------
|-0-3-7-7-7-3-0-----0-3---------5---0-3-7-7-7-3-0------0-3---------------------

(more to this song, but this intro is all that really interested me..)


"Gb Story"

|------------------------------------------------------------------------------
|------------------------------------------------------------------------------
|-----------------------6------------------------------------------------------
|----9-11-----10-12---4-4-7-4---------9-8-9---9-8-9----------------------------
|-11-7--9-9---8-10----2---5-2-7-4---9-7-6-7-7-7-6-7-6--------------------------
|-9-------7-------------------5-2---7-------5-------4--------------------------
                          x4
   (verse)             (chorus)          (change)


"No Reason"

|------------------------------------------------------------------------------
|------------------------------------------------------------------------------
|-----------6-6----------------------------------------------------------------
|-7---------4-4-4-6---7--------------------------------------------------------
|-5-6-2-4-------2-4-7-5--------------------------------------------------------
|---4-0-2-----------5----------------------------------------------------------
    x4          x6
 (verse)     (change)


"Little Friends"

|------------------------------------------------------------------------------
|------------------------------------------------------------------------------
|------------------------------------------------------------------------------
|-10-8------8---------6----------8-------------------8-------------------------
|-8--6-11-8-6-6---6/8-4-4---8/10-6-6---4-6-4-8-4-6-4-6-------------------------
|------9--6---4---4/6---2---6/8----4---2-4-2-6-2-4-2---------------------------
      x2           x2        x2
    (verse)          (chorus)           (end part)


"Cashing In"

|------------------------------------------------------------------------------
|------------------------------------------------------------------------------
|------------------------------------------------------------------------------
|-----------------9-9-9---9---9-----9-7-7-9-10-9-7-5---------------------------
|-----------------7-7-7---7-9-7-9---7-5----------------------------------------
|-0-4-0-5-5-5-4-0-----------7---7----------------------------------------------
                                           x4
                                    ("we don't care)

|------------------------------------------------------------------------------
|------------------------------------------------------------------------------
|------------------------------------------------------------------------------
|----------------------7---9---------------------------------------------------
|-7-9-10-7-5-2--7-9-10-5-9-7---------------------------------------------------
|-5-7-8--5-3-0--5-7-8----7-----------------------------------------------------
 ("there's no place like home)


"Stumped"

            pm...
|------------------------------------------------------------------------------
|------------------------------------------------------------------------------
|----------------------4-5-----------------------------------------------------
|-----3--------------7-2-3-5---------------------------------------------------
|---5---3----------5-5-----3---------------------------------------------------
|-3---------3-...--3-----------------------------------------------------------
  (bass
  intro)


"Good Guys"

|-7-7-5-5-7-7-5----------------------------------------------------------------
|-7-7-5-5-7-7-5----------------------------------------------------------------
|-7-7-5-5-7-7-5----------------------------------------------------------------
|-9-9-7-7-9-9-7-----------7-7-------------------------5-----4------------------
|-9-9-7-7-9-9-7---2-2-7-7-5-5-7---9---10------------5-3-----2------------------
|-7-7-5-5-7-7-5---0-0-5-5-----5---7---8-------------3---...--------------------
      x2               x6
   (intro)(?)        (verse)    ("tell your...")  ("good guys bad guys...")


"Salad Days"

|------------------------------------------------------------------------------
|------------------------------------------------------------------------------
|------------------------------------------------------------------------------
|-11-9-8-9-------9-8----------9-7-9-7--11-9-11-9-------------------------------
|-9--7-6-7---9-7-7-6---9-11---7-5-7-5--9--7-9--7-------------------------------
|------------7-5-------7-9-----------------------------------------------------
     x2
  (intro)    (verse) (chorus) (change....)

|------------------------------------------------------------------------------
|------------------------------------------------------------------------------
|------------------------------------------------------------------------------
|------------------------------------------------------------------------------
|------------------------------------------------------------------------------
|------------------------------------------------------------------------------     
Добавлено: 13.06.2013
Другие материалы по этой песне:

Страница создана 09.03.2012
http://primanota.ru/minor-threat/filler-chords.htm
Привет, Гость.
Предлагаем пройти революционный курс по гитаре.
Подарок от PrimaNota.Ru, забирай!