PrimaNota.ru - самый крупный в мире бесплатный архив песенных текстов, аккордов, табулатур и нот


Minor Alps - Maxon - таба, видео

Регистрация Запомнить меня
Войти через:  Facebook Google Twitter Vk Yandex Mail.ru

Minor Alps - Maxon - таба, видео

Печатать
Просмотров: 101
Уроки эстрадного вокала в Санкт-Петербурге
Авторы: Matthew Caws, Juliana Hatfield

Minor Alps - "Maxon"
From the Album "Get there" 2013

Standard Tuning - Capo on 2nd fret


A very pretty song by Matt Caws and Juliana Hatfield (Minor Alps) from
the 2013 release "Get There".  Figure out the finger picking by playing
along with the track.  Some newer guitar players may have trouble with
the higher fretted chords.


Chords used primarily are the intro set of Bm, F#m, G6, D, A and the
chorus chords which are open string A, G and D.

Difficulty:  Novice

Intro x2
 Bm     F#m     G6      D       A
        


VERSE

       All I have is a maxon and a five watt amp

   Bm                F#m            G6
E|--2-----------------2-------------7-----------------------------------|
B|--3-----------------2-------------8-----------------------------------|
G|--4-----------------2-------------7-----------------------------------|
D|--4-----------------4-------------9-----------------------------------|
A|--2-----------------0-------------7-----------------------------------|
D|----------------------------------------------------------------------|

      No 9 volt now I walk to the store

     D                               A
E|-----------------------------------5----------------------------------|
B|--7--------------------------------5----------------------------------|
G|--7--------------------------------6----------------------------------|
D|--7--------------------------------7----------------------------------|
A|--5--------------------------------0----------------------------------|
D|----------------------------------------------------------------------|

     Should be taken boxes gotta    move some things

   Bm                F#m            G6
E|--2-----------------2-------------7-----------------------------------|
B|--3-----------------2-------------8-----------------------------------|
G|--4-----------------2-------------7-----------------------------------|
D|--4-----------------4-------------9-----------------------------------|
A|--2-----------------0-------------7-----------------------------------|
D|----------------------------------------------------------------------|

            Keep promises and calendars

    A                                D
E|-----------------------------------5----------------------------------|
B|--7--------------------------------5----------------------------------|
G|--7--------------------------------6----------------------------------|
D|--7--------------------------------7----------------------------------|
A|--5--------------------------------0----------------------------------|
D|----------------------------------------------------------------------|


CHORUS


     But I slip off into dreamland

    A                    G
E|----------------------------------------------------------------------|
B|--2-------------------------------------------------------------------|
G|--2-------------------------------------------------------------------|
D|--2-------------------0-----------------------------------------------|
A|--0-------------------2-----------------------------------------------|
D|----------------------3-----------------------------------------------|

    the waking kind, the walking off the clearing mind

E|------2--------------------------------------------------------2------|
B|------3-------------2----------------------------------0-------3------|
G|------2-------------2----------------------------------0-------2------|
D|------0-------------2----------------------------------0--------------|
A|--------------------0----------------------------------2--------------|
D|-------------------------------------------------------3--------------|


           I need some margin,      room to think

E|------------------------------------2---------------------------------|
B|--2--------------------0------------3---------------------------------|
G|--2--------------------0------------2---------------------------------|
D|--2--------------------0----------------------------------------------|
A|--0--------------------2----------------------------------------------|
D|-----------------------3----------------------------------------------|


       one more day up on the brink

E|----------------------------------------------2-----------------------|
B|---2------------------------------------------3-----------2-----------|
G|---2------------------------------------------2-----------2-----------|
D|---2----------------------------------2-------------------2-----------|
A|---0----------------------------------2-------------------0-----------|
D|--------------------------------------0-------------------------------|

Verse

Too many questions, I'm slow to react
I run to dreams and run from facts
Something hurts I don't know what it is
Let it all fall apart


Chorus

But I slip off to pictures
that never were that couldn't happen in this world
I always think that chance a nod at me a turn a blind eye
wave the fee

Verse

I should hurry but I take my time
It keeps the panic level low
Don't have pity but have sympathy
You never know how it will go

CHORUS

But I slip off into dreamland
the waking kind, the walking off the clearing mind
I need some margin, room to think
one more day up on the brink
Добавлено: 12.08.2014
Другие материалы по этой песне:
  • Аккорды и текст

Страница создана 12.08.2014
http://primanota.ru/minor-alps/maxon-chords.htm
Привет, Гость.
Предлагаем пройти революционный курс по гитаре.
Подарок от PrimaNota.Ru, забирай!